Oops, an error
Loading. Please wait.

Hold Fast Hope bass

version 1
version 1

Whole song

Interactive

by Thrice
567 views 1 this week
no commentswrite comment
1 2 3 4 5
3 more votes to show rating
add to favorites
×
Save as Personal and add changes to this tab that will be seen only by you. Learn more ›
×
You can save this tab as Personal to edit and correct it or add notes. All changes will be seen only by you. Learn more »
launch autoscroll
font size
0
reset
guitar tuner
edit
Autoscroll
slow
fast
+/-
esc
set tempo
stop
Band: Thrice
Song: Hold Fast Hope
Album: Vheissu
Music by Dustin Kensrue, Teppi Teranishi
Tuning: Drop D


First Part: "hope" is yelled 0:13
G|---------------|
D|---------------|
A|-5-3-5--3---3--|
D|---------0/----|   

Next Part: "white Death Wakes...."  0:49  x2
G|----------------------------------|
D|----------------------------------|
A|-2--2-2-2--------1-1-1-1-1-1-1-1--|
D|---------1--1-1-1-----------------|

Next Part: "As Strong arms Grip....." 1:14
G|------------------------------------------------------------------------------------|
D|------------------------------------------------------------------------------------|
A|-5-5-5-5-5-5-5-5-5-5-3-3-3-3-3-3-3-3-3-3-1-1-1-1-1-1-1-1-1-1-1----------------------|
D|---------------------------------------------------------------5-5-5-5-5-3-3-3-3-3--|

 
G|------------------------------------------------------------------------------------|
D|------------------------------------------------------------------------------------|
A|-5-5-5-5-5-5-5-5-5-5-3-3-3-3-3-3-3-3-3-3-1-1-1-1-1-1-1-1-1-1-1----------------------|
D|---------------------------------------------------------------5-5-5-5-5-7-7-7-7-7--|  

Next Part: "Night Black as cold"  2:03  x2
G|---------------------------------------------------------------|  
D|---------------------------------------------------------------|
A|2-2-2-2-2-2-2-2-2-2-2---------------------1-1-1-1-1-1-1-1-1-1--|
D|----------------------1-1-1-1-1-1-1-1-1-1----------------------|


Next Part: "Deep Beneath the...." 2:43  x2

G|------------------------------------------------------------------------------------|
D|------------------------------------------------------------------------------------|
A|-5-5-5-5-5-5-5-5-5-5-3-3-3-3-3-3-3-3-3-3-1-1-1-1-1-1-1-1-1-1-1----------------------|
D|---------------------------------------------------------------5-5-5-5-5-3-3-3-3-3--|

 
G|------------------------------------------------------------------------------------|
D|------------------------------------------------------------------------------------|
A|-5-5-5-5-5-5-5-5-5-5-3-3-3-3-3-3-3-3-3-3-1-1-1-1-1-1-1-1-1-1-1----------------------|
D|---------------------------------------------------------------5-5-5-5-5-7-7-7-7-7--| 

Last Part:  keep playing... music slows down
G|-----------------------------------|
D|-----------------------------------|   
A|-2--2-2-2---------1-1-1-1-1-1-1-1--|
D|---------1--1-1-1------------------|

            
            
Suggest correction
Creating personal tab
Creating personal tab
You can edit any tab online and save it as your Personal.

You can edit, replace or remove any tab part or add personal notes – all changes will be seen only by you.

Personal tabs can be accessed anytime from any device, even offline.
Learn more »
Give kudos to tab author, rate the tab!
1 2 3 4 5
comments
print report bad tab
guest
You may want to rate the tab now too:
select rating
Wanna post a correction for this tab? Suggest correction