Oops, an error
Loading. Please wait.

Hold Fast Hope bass

version 2
version 2

Whole song

Interactive

by Thrice
549 views 1 this week
no commentswrite comment
1 2 3 4 5
3 more votes to show rating
add to favorites
×
Save as Personal and add changes to this tab that will be seen only by you. Learn more ›
×
You can save this tab as Personal to edit and correct it or add notes. All changes will be seen only by you. Learn more »
launch autoscroll
font size
0
reset
guitar tuner
edit
Autoscroll
slow
fast
+/-
esc
set tempo
stop
| Thrice - Hold Fast Hope |
---------------------------
Tuning: CGCF

Pre Verse: 8x

F------------------|
C------------------|
G------------------|
C-2-0-2-0-2s4-0----|


Verse: 2x (Different Endings)

F---------------------------------------------------------------|
C---------------------------------------------------------------|
G-7-777-7-7-7-777-7-7-5-555-5-5-5-555-5-5-3-333-3-3-3-333-3-3-3-|
C---------------------------------------------------------------|

1st ending:
F---------------------------------------|
C---------------------------------------|
G-12-121212-12-12-12-10-101010-10-10-10-|
C---------------------------------------|

2nd ending:
F---------------------------------------|
C---------------------------------------|
G-12-121212-12-12-12-14-141414-14-14-14-|
C---------------------------------------|


Pre Chorus: 2x

F--------------------------------------------------------------------------|
C--------------------------------------------------------------------------|
G--------------------------------------------------------------------------|
C-11---11--11---11--3-----3--3-----3--10----10--10---10--10----10--10---10-|


Chorus: 2x (Different endings)

F----------------------------------------------------------|
C----------------------------------------------------------|
G----------------------------------------------------------|
C-2-2-22-2-2-22-0-0-00-0-0-00-10-10-1010-10-10-1010-7-7-77-|

1st ending   2nd ending
F----------|-----------|
C----------|-----------|
G----------|-----------|
C-5-5-55---|-9-9-99----|


Bridge: 4x

F----------------------------------------------------------|
C----------------------------------------------------------|
G-4---4--4---4---------------------3--3---3--3---3--3---3--|
C---------------3---3--3---3-------------------------------|


Verse: 2x (Different Endings)

F---------------------------------------------------------------|
C---------------------------------------------------------------|
G-7-777-7-7-7-777-7-7-5-555-5-5-5-555-5-5-3-333-3-3-3-333-3-3-3-|
C---------------------------------------------------------------|

1st ending:
F---------------------------------------|
C---------------------------------------|
G-12-121212-12-12-12-10-101010-10-10-10-|
C---------------------------------------|

2nd ending:
F---------------------------------------|
C---------------------------------------|
G-12-121212-12-12-12-14-141414-14-14-14-|
C---------------------------------------|


Outro Chorus:

F--------------------------------------------------------------------------|
C--------------------------------------------------------------------------|
G--------------------------------------------------------------------------|
C-11---11--11---11--3-----3--3-----3--10----10--10---10--10----10--10---10-|

F---------------------|
C---------------------|
G---------------------|
C-10----10--10---10---|

            
            
Suggest correction
Creating personal tab
Creating personal tab
You can edit any tab online and save it as your Personal.

You can edit, replace or remove any tab part or add personal notes – all changes will be seen only by you.

Personal tabs can be accessed anytime from any device, even offline.
Learn more »
Give kudos to tab author, rate the tab!
1 2 3 4 5
comments
print report bad tab
guest
You may want to rate the tab now too:
select rating
Wanna post a correction for this tab? Suggest correction