Oops, an error
Loading. Please wait.

Image Of The Invisible bass

version 1
version 1

Whole song

Interactive

by Thrice
2,000 views 1 this week
3 commentsread comments
1 2 3 4 5
x 3
add to favorites
×
Save as Personal and add changes to this tab that will be seen only by you. Learn more ›
×
You can save this tab as Personal to edit and correct it or add notes. All changes will be seen only by you. Learn more »
launch autoscroll
font size
0
reset
guitar tuner
backing track
0:00
0:00
edit
Autoscroll
slow
fast
+/-
esc
set tempo
stop
Difficulty
intermediate
Image of the invisible
Thrice
Bass

Intro No bass

We're more in…
G|-----------------------------------------------------------|
D|-----------------------------------------------------------|
A|-10~----------------6~--------3~---------------------------|
E|-----------------------------------------------------------| x2

We can't allow this...
G|-----------------------------------------------------------|
D|-----------------------------------------------------------|
A|-10-10-10-10-10-10-10-10-6-6-6-6-3-3-3-3-------------------|
E|-----------------------------------------------------------| x2

We were all lost…
G|-----------------------------------------------------------|
D|-----------------------------------------------------------|
A|-----------------------------------------------------------|
E|-1-1-1-1-1-1-1-1-5-5-5-5-3-3-3-3---------------------------| x4

G|-----------------------------------------------------------|
D|-----------------------------------------------------------|
A|-----------------------------------------------------------|
E|-1-1-1-1-5-5-3-5-5-55-3-1----------------------------------|

Verse 2 part 1 no bass.

So raise the banner…
G|-----------------------------------------------------------|
D|-----------------------------------------------------------|
A|-10-10-10-10-10-10-10-10-6-6-6-6-3-3-3-3-------------------|
E|-----------------------------------------------------------| 

G|-----------------------------------------------------------|
D|-----------------------------------------------------------|
A|-10-10-10-10-10-10-10-10-6-6-6-6---------------------------|
E|-----------------------------------------------------------| 

We were all lost…
G|-----------------------------------------------------------|
D|-----------------------------------------------------------|
A|-----------------------------------------------------------|
E|-1-1-1-1-1-1-1-1-5-5-5-5-3-3-3-3---------------------------| x4

No bass in interlude and in the part 1 of the verse

We can't allow this...
G|-----------------------------------------------------------|
D|-----------------------------------------------------------|
A|-10-10-10-10-10-10-10-10-6-6-6-6-3-3-3-3-------------------|
E|-----------------------------------------------------------| 

G|-----------------------------------------------------------|
D|-----------------------------------------------------------|
A|-10-10-10-10-10-10-10-10-----------------------------------|
E|-----------------------------------------------------------|

We were all lost…
G|-----------------------------------------------------------|
D|-----------------------------------------------------------|
A|-----------------------------------------------------------|
E|-1-1-1-1-1-1-1-1-5-5-5-5-3-3-3-3---------------------------| x10

End
G|-----------------------------------------------------------|
D|-----------------------------------------------------------|
A|-----------------------------------------------------------|
E|-9-9-8---8-9-6---9-9-8---8-9-6---2/1-----------------------|

By --(...\SaRaH/...)--

            
            
Suggest correction
Creating personal tab
Creating personal tab
You can edit any tab online and save it as your Personal.

You can edit, replace or remove any tab part or add personal notes – all changes will be seen only by you.

Personal tabs can be accessed anytime from any device, even offline.
Learn more »
Give kudos to tab author, rate the tab!
1 2 3 4 5
comments
print report bad tab
3 comments total.
0 reply
Zildjian123 115 Mar 24, 2006 05:06 PM

Good job dude.

-1 reply
Crazy Drummer69 281 May 18, 2006 08:52 PM

Dude, this tab is totally off, I have the bass stem that they used in the final mix of the song, common man put some effort into it!

0 reply
MrChuckieRock 10 Jul 31, 2012 07:03 AM

verses sound good...but the chorus and outro sound a bit off

guest
Wanna post a correction for this tab? Suggest correction