Oops, an error
Loading. Please wait.

Salt And Shadow tab

version 1
version 1

Whole song

by Thrice
2,512 views 9 this week
5 commentsread comments
1 2 3 4 5
x 6
add to favorites
×
Save as Personal and add changes to this tab that will be seen only by you. Learn more ›
×
You can save this tab as Personal to edit and correct it or add notes. All changes will be seen only by you. Learn more »
launch autoscroll
font size
0
reset
how to read this tab
guitar tuner
edit
Autoscroll
slow
fast
+/-
esc
set tempo
stop
[Intro] 

d|-----5---5-------5---5-------5---5-------5---5-----------------------------|
A|---7---7---7---7---7---7---7---7---7---7---7---7---------------------------|
F|-7-----------7-----------7-----------7-------------------------------------|
C|---------------------------------------------------------------------------|
G|---------------------------------------------------------------------------|
D|---------------------------------------------------------------------------|
                                                                               x2
d|-----5---5-------5---5-------5---5-------5---5-----------------------------|
A|---7---7---7---7---7---7---7---7---7---7---7---7---------------------------|
F|-6-----------6-----------6-----------6-------------------------------------|
C|---------------------------------------------------------------------------|
G|---------------------------------------------------------------------------|
D|---------------------------------------------------------------------------|


[Verse] 

Same as Intro

d|-----5---5-------5---5-------5---5-------5---5-----------------------------|
A|---7---7---7---7---7---7---7---7---7---7---7---7---------------------------|
F|-7-----------7-----------7-----------7-------------------------------------|
C|---------------------------------------------------------------------------|
G|---------------------------------------------------------------------------|
D|---------------------------------------------------------------------------|
                                                                               repeat until Chorus
d|-----5---5-------5---5-------5---5-------5---5-----------------------------|
A|---7---7---7---7---7---7---7---7---7---7---7---7---------------------------|
F|-6-----------6-----------6-----------6-------------------------------------|
C|---------------------------------------------------------------------------|
G|---------------------------------------------------------------------------|
D|---------------------------------------------------------------------------|


[Chorus] 

Starts at 1:50

G               Bm
You're here but it's clear
            A
You're just salt and shadow
Em         Bm           A
Here, but half a world away.
Em                     Bm       Fm
You're here but you're merely a hologram, so
G          Bm          A
Near, but still so far away.


[Verse]

d|-----5---5-------5---5-------5---5-------5---5-----------------------------|
A|---7---7---7---7---7---7---7---7---7---7---7---7---------------------------|
F|-7-----------7-----------7-----------7-------------------------------------|
C|---------------------------------------------------------------------------|
G|---------------------------------------------------------------------------|
D|---------------------------------------------------------------------------|
                                                                               repeat until Chorus
d|-----5---5-------5---5-------5---5-------5---5-----------------------------|
A|---7---7---7---7---7---7---7---7---7---7---7---7---------------------------|
F|-6-----------6-----------6-----------6-------------------------------------|
C|---------------------------------------------------------------------------|
G|---------------------------------------------------------------------------|
D|---------------------------------------------------------------------------|


[Chorus]

G               Bm
You're here but it's clear
            A
You're just salt and shadow
Em         Bm           A
Here, but half a world away.
Em                     Bm       Fm
You're here but you're merely a hologram, so
G          Bm          A
Near, but still so far away.


[Bridge]

d|-----5---5-------5---5-------5---5-------5---5-----------------------------|
A|---7---7---7---7---7---7---7---7---7---7---7---7---------------------------|
F|-7-----------7-----------7-----------7-------------------------------------|
C|---------------------------------------------------------------------------|
G|---------------------------------------------------------------------------|
D|---------------------------------------------------------------------------|
                                                                               
d|-----5---5-------5---5-------5---5-------5---5-----------------------------|
A|---7---7---7---7---7---7---7---7---7---7---7---7---------------------------|
F|-6-----------6-----------6-----------6-------------------------------------|
C|---------------------------------------------------------------------------|
G|---------------------------------------------------------------------------|
D|---------------------------------------------------------------------------|


[Final Chorus] 

Starts at 4:40. The lead guitar plays the intro/verse riff here.

G               Bm
You're here but it's clear
            A
You're just salt and shadow
G         Bm           A
Here, but half a world away.

d|-----5---5-------5---5-------5---5-------5---5-----------------------------|
A|---7---7---7---7---7---7---7---7---7---7---7---7---------------------------|
F|-7-----------7-----------7-----------7-------------------------------------|
C|---------------------------------------------------------------------------|
G|---------------------------------------------------------------------------|
D|---------------------------------------------------------------------------|
                                                                               
d|-----5---5-------5---5-------5---5-------5---5-----------------------------|
A|---7---7---7---7---7---7---7---7---7---7---7---7---------------------------|
F|-6-----------6-----------6-----------6-------------------------------------|
C|---------------------------------------------------------------------------|
G|---------------------------------------------------------------------------|
D|---------------------------------------------------------------------------|

You're here but you're merely a hologram, so
Near, but still so far away.


[Outro]

 This is the same riff as "Hurricane"! This is the piano melody tabbed for guitar.

d|------------7---------------------7----------------------------------------|
A|-8/-12~-7-8---7-8-7~----------7-8---7-8-7~---------------------------------|
F|----------------------7----------------------------------------------------|
C|-------------------------9~------------------------------------------------|
G|---------------------------------------------------------------------------|
D|---------------------------------------------------------------------------|

  G              Em     Bm            D



************************************

| x  Dead note
| /  Slide up
| ~  Vibrato

************************************

            
            
Suggest correction
Creating personal tab
Creating personal tab
You can edit any tab online and save it as your Personal.

You can edit, replace or remove any tab part or add personal notes – all changes will be seen only by you.

Personal tabs can be accessed anytime from any device, even offline.
Learn more »
comments
print report bad tab
5 comments total. Showing first comments.
0 reply
michaelshelbych 10 Jul 30, 2016 11:45 AM

this is pretty good, might want to change the string lines to actually be in whole step-down tuning, otherwise a little misleading.

0 reply
SilverDolphin 230 Aug 01, 2016 04:05 PM

Thanks for the comment. I did put the tuning at the top so it felt unnecessary to change the string lines. I'm sorry if you found it misleading.

0 reply
SilverDolphin 230 Dec 30, 2016 01:39 AM

I had some free time and fixed the tuning of the string lines because it was starting to bug me too.

guest
You may want to rate the tab now too:
select rating
Wanna post a correction for this tab? Suggest correction