Oops, an error
Loading. Please wait.

Stand And Feel Your Worth tab

version 1
version 1

Whole song

by Thrice
2,524 views 1 this week
3 commentsread comments
1 2 3 4 5
1 last vote to show rating
add to favorites
×
Save as Personal and add changes to this tab that will be seen only by you. Learn more ›
×
You can save this tab as Personal to edit and correct it or add notes. All changes will be seen only by you. Learn more »
launch autoscroll
font size
0
reset
how to read this tab
guitar tuner
edit
Autoscroll
slow
fast
+/-
esc
set tempo
stop
Author
-------------------------------------------------------------------------------
			     STAND AND FEEL YOUR WORTH
				by Thrice
					Vheissu (2005)
-------------------------------------------------------------------------------
My first Thrice tab. I'm 100% certain this is right, my ears have bled trying
to learn this. Please comment and rate! :)

Tabbed by: Shaunedy
Email: shadow-dirapon@hotmail.co.uk

GUITARS

DUSTIN: Drop D
TEPPEI: Drop D

INTRO

Guitar 1 (delay)

e|------------------------------------------|
B|------------------------------------------|
G|------------------------------------------|
D|------------------------------------------|
A|--2----5-4--------------------------------|
D|-----------4----2-0--5-4--4h5--5--2-0--4--|

Guitar 2 (after guitar 1)

e|-19-----19-------------17-------17-------19------19-----------17--17-------|
B|---19-----19-------------------------------19------19----------------19----|
G|-----19-----19----18-19----18-19---18h19-----19------19--18-19-------------|
D|---------------------------------------------------------------------------|
A|---------------------------------------------------------------------------|
D|---------------------------------------------------------------------------|

The descending 19's can be played as harmonics, I usually do.

e|----------------------14-----------------|
B|-17-15-14--12--12--12--------------------|
G|---------------------------14--11--15-11-|
D|-----------------------------------------|
A|-----------------------------------------|
D|-----------------------------------------|

CHORUS ("Wake!..")

Guitar 1

e|--------------------------------------------------------|
B|--------------------------------------------------------|
G|-444444444444-777666------------------------------------|
D|-444444444444-777666-44444444-222222222200-555555555555-|
A|-222222222222-777666-44444444-222222222200-555555555555-|
D|---------------------44444444-222222222200-555555555555-|


           
e|--------------------------------------------------------------------------|
B|--------------------------------------------------------------------------|
G|-4444444---------------------------------------------------------------4~-|
D|-4444444-4444455555-555555555-2222222222-0000000000-444444444444444444-4~-|
A|-2222222-4444455555-555555555-2222222222-0000000000-444444444444444444-2~-|
D|---------4444455555-555555555-2222222222-0000000000-444444444444444444----|
           ^^ 8va, guitar 2  ^^

VERSE

Guitar 2

e|---------------------------------------------------------------------------|
B|---------------------------------------------------------------------------|
G|-7-6--4-3--4-6--0--0-2--00-0-----------------------------------------------|
D|----------------------4-----4--4-2-2p0-------------------------------------|
A|---------------------------------------------------------------------------|
D|---------------------------------------------------------------------------|

Guitar 1 (after guitar 2)

e|---------------------|
B|---------------------|
G|---------------------|
D|---------------------|
A|-6--5---2~--6--0--5~-| x2
D|-6--5---2~--6--0--5~-|

CHORUS

e|--------------------------------------------------------|
B|--------------------------------------------------------|
G|-444444444444-777666------------------------------------|
D|-444444444444-777666-44444444-222222222222-555555555555-|
A|-222222222222-777666-44444444-222222222222-555555555555-|
D|---------------------44444444-222222222222-555555555555-|

e|-----------------------------------------------------------------------|
B|-----------------------------------------------------------------------|
G|-4444444---------------------------------------------------------------|
D|-4444444-4444455555-555555555-2222222222-0000000000-444444444444444444-|
A|-2222222-4444455555-555555555-2222222222-0000000000-444444444444444444-|
D|---------4444455555-555555555-2222222222-0000000000-444444444444444444-|
           ^^ 8va, guitar 2  ^^

VERSE 2

Guitar 2

e|-----------------------------------------------------------------------|
B|-----------------------------------------------------------------------|
G|-----------------------------------------------------------------------|
D|--------2222222222222222--6v-0~--555555555555--9v-8v~-5555555544444444-|
A|-6--5~--2222222222222222--6v-0~--555555555555--9v-8v~-5555555544444444-|
D|-6--5~--2222222222222222--6v-0~--555555555555--9v-8v~-5555555544444444-|

e|----------------------------|
B|----------------------------|
G|----------------------------|
D|-6v--0~--55555555555555555~-|
A|-6v--0~--55555555555555555~-|
D|-6v--0~--55555555555555555~-|

BRIDGE

Guitar 1

e|-----------5~-7-----7--------5----5--7-------------------------------------|
B|-3-2-0----------7-----7----------------7-----------------------------------|
G|------------------7-----7--6-------------7-7h9-9----11-7-9-6-7-4--6--------|
D|-------------------------------------------------11------------------------|
A|---------------------------------------------------------------------------|
D|---------------------------------------------------------------------------|

Part 2 (play underneath guitar 2)

e|-7-----7-------------------------------------------------------------------|
B|---7-----7-----------------------------------------------------------------|
G|-----7-----7-6--7----------------------------------------------------------|
D|---------------------------------------------------------------------------|
A|---------------------------------------------------------------------------|
D|---------------------------------------------------------------------------|

Guitar 2 (after first part of guitar 1)

e|-15-14----15-14------19-17-------------------------------------------------|
B|-------15-------15--------19-17--17-18-17----------------------------------|
G|-------------------------------19--------19-18-16-14-16~-------------------|
D|---------------------------------------------------------------------------|
A|---------------------------------------------------------------------------|
D|---------------------------------------------------------------------------|

POST-BRIDGE

Just play these notes; listen for when to play them.

e|-333p2-2-0--------------|
B|------------------------|
G|-------------0-0-0------|
D|------------------4-4-2-|
A|------------------------|
D|------------------------|

OUTRO

e|---------------------------------------------------------------------------|
B|-101010101010101010101010-131313121212-101010101010101010101010101010------|
G|-9-9-9-9-9-9-9-9-9-9-9-9--121212111111-9-9-9-9-9-9-9-9-9-9-9-9-9-9-9-------|
D|-7-7-7-7-7-7-7-7-7-7-7-7--1010109-9-9--7-7-7-7-7-7-7-7-7-7-7-7-7-7-7-------|
A|---------------------------------------------------------------------------|
D|---------------------------------------------------------------------------|

e|-------------------| After this, repeat the chords with variations on which
B|-------------------| ones are played, but you can easily get the picture from
G|-99999-1010101010--| listening.
D|-99999-1010101010--|
A|-77777-8-8-8-8-8---|
D|-------------------|

Don't forget to leave feedback!

| /  slide up
| \  slide down
| h  hammer-on
| p  pull-off
| ~  let ring
| v  vibrato
| +  harmonic
| x  Mute note
| 8va  Octave above
| 8vb  Octave below
===============================================================================

            
            
Suggest correction
Creating personal tab
Creating personal tab
You can edit any tab online and save it as your Personal.

You can edit, replace or remove any tab part or add personal notes – all changes will be seen only by you.

Personal tabs can be accessed anytime from any device, even offline.
Learn more »
Give kudos to tab author, rate the tab!
1 2 3 4 5
comments
print report bad tab
3 comments total.
+1 reply
Tomozaurus 230 Mar 09, 2009 01:55 PM

Well, it sounds great. The notes all seem to be correct.
Just one thing: they probably play it in standard D (D G C F A D) not in Drop D. As far as I know, they never use drop D.

+1 reply
Shaunedy 282 Mar 10, 2009 09:38 AM

Thankyou :) And okay, I guess it's still a good way to play in this tuning. I *might* transpose it into D standard if I can be bothered. Thanks again :D

0 reply
Tomozaurus 230 Mar 15, 2009 11:30 PM

No worries. This is still a pretty good way to play it in drop D although it's not how Thrice play it.

guest
You may want to rate the tab now too:
select rating
Wanna post a correction for this tab? Suggest correction