Oops, an error
Loading. Please wait.

Weight Of Glory tab

by Thrice
2,546 views 1 this week
1 commentread comment
1 2 3 4 5
x 3
add to favorites
×
Save as Personal and add changes to this tab that will be seen only by you. Learn more ›
×
You can save this tab as Personal to edit and correct it or add notes. All changes will be seen only by you. Learn more »
launch autoscroll
font size
0
reset
how to read this tab
guitar tuner
edit
Autoscroll
slow
fast
+/-
esc
set tempo
stop
Difficulty
Song-Weight of Glory
Artist-Thrice
Tuning-Drop D or C take your pick (i use D with my voice being slightly higher.)


****************************************************************************
****************************Guitar One**************************************
****************************************************************************


***Intro part one***

|----------------------------------|-------------------------------------|
|----------------------------------|-------------------------------------|
|-19-19-19-19-19-19-19-19-19-19-19-|-19-19-19-19-19-19-19-19-19-19-19-19-|
|----------------------------------|-------------------------------------|
|-17-17-17-17-17-17-17-17-17-17-17-|-17-17-17-17-17-17-17-17-17-17-17-17-|
|----------------------------------|-------------------------------------|


|-------------------------------------|-------------------------------------|
|-------------------------------------|-------------------------------------|
|-19-19-19-19-19-19-19-19-19-19-19-19-|-19-19-19-19-19-19-19-19-19-19-19-19-|
|-------------------------------------|-------------------------------------|
|-17-17-17-17-17-17-17-17-17-17-17-17-|-17-17-17-17-17-17-17-17-17-17-17-17-|
|-------------------------------------|-------------------------------------|


|-------------------------------------|-------------------------------------|
|-------------------------------------|-------------------------------------|
|19-19-19-19-19-19-19-19-19-19-19-19-|-19--19-19-19-19-19-19-19-19-19-19-19-|
|--------------------------------------|------------------------------------|
|17-17-17-17-17-17-17-17-17-17-17-17-|-17--17-17-17-17-17-17-17-17-17-17-17-|
|--------------------------------------|------------------------------------|

|--------------------------------------|-------------------------------------|
|--------------------------------------|-------------------------------------|
|-19-19-19-19-19-19-19-19-19-19-19-19--|-19-19-19-19-19-19-19-19-19-19-19-19-|
|--------------------------------------|-------------------------------------|
|-17-17-17-17-17-17-17-17-17-17-17-17--|-17-17-17-17-17-17-17-17-17-17-17-17-|
|--------------------------------------|-------------------------------------|

|--------------------------------------|-------------------------------------|
|--------------------------------------|-------------------------------------|
|-19-19-19-19-19-19-19-19-19-19-19-19--|-19-19-19-19-19-19-19-19-19-19-19-19-|
|--------------------------------------|-------------------------------------|
|-17-17-17-17-17-17-17-17-17-17-17-17--|-17-17-17-17-17-17-17-17-17-17-17-17-|
|--------------------------------------|-------------------------------------|

|--------------------------------------|-------------------------------------|
|--------------------------------------|-------------------------------------|
|-19-19-19-19-19-19-19-19-19-19-19-19--|-19-19-19-19-19-19-19-19-19-19-19-19-|
|--------------------------------------|-------------------------------------|
|-17-17-17-17-17-17-17-17-17-17-17-17--|-17-17-17-17-17-17-17-17-17-17-17-17-|
|--------------------------------------|-------------------------------------|


***Intro part 2***

||---------------------------------------|-----------------------------------|
||o--------------------------------------|-----------------------------------|
||--19--19-19-19-19-19-19-19-19-19-19-19-|-12-12-12-12-12-12s13-13-13-13-13--|s
||---------------------------------------|-----------------------------------|
||o-17--17-17-17-17-17-17-17-17-17-17-17-|-10-10-10-10-10-10s11-11-11-11-11--|s
||---------------------------------------|-----------------------------------|


   3x
|-----------------------------------|-----------------------------------||
|-----------------------------------|----------------------------------o||
|-12--12-12-12-12-12s13-13-13-13-13s|=16-16-16-16-16-16s19-19-19-19-19--||
|-----------------------------------|-----------------------------------||
|-10--10-10-10-10-10s11-11-11-11-11s|=14-14-14-14-14-14s17-17-17-17-17-o||
|-----------------------------------|-----------------------------------||


  3x
|-----------------------------------|-----------------------------------||
|-----------------------------------|----------------------------------o||
|--------12-12-12-12s10-10-10-10-10-|-----------------------------------||
|--6--------------------------------|--2--2--2--2--2--5-----5--5--5--5--||
|--6-----10-10-10-10s=8--8--8--8--8-|--2--2--2--2--2--5-----5--5--5--5-o||
|--6--------------------------------|--2--2--2--2--2--5-----5--5--5--5--||


 ***Verse***

|----------------------------------|----------------------------------|
|----------------------------------|----------------------------------|
|----------------------------------|----------------------------------|
|----------------------------------|----------------------------------|
|-----------------10-10--10--9-9-9-|-------------------10-10-10-9-9-9-|
|-9--9-9-12-12-12------------------|---9--9-9-12-12-12----------------|

|--------------------------------|-----------------------------------|
|--------------------------------|-----------------------------------|
|--------------------------------|-----------------------------------|
|--------------------------------|-----------------------------------|
|--------------------7-7-7-6-6-6-|--------------------7-7-7-5-5-5----|
|--6-6---6--9---9--9-------------|--5-5---5--9---9--9----------------|


|-------------------------------------|----------------------------------|
|-------------------------------------|----------------------------------|
|-------------------------------------|----------------------------------|
|-------------------------------------|----------------------------------|
|----------------------10-10-10-9-9-9-|-------------------10-10-10-9-9-9-|
|--9-9---9--12--12--12----------------|---9--9-9-12-12-12----------------|


|--------------------------------|-----------------------------------|
|--------------------------------|-----------------------------------|
|--------------------------------|-----------------------------------|
|--------------------------------|-----------------------------------|
|--------------------7-7-7-6-6-6-|--------------------7-7-7-5-5-5----|
|--6-6---6--9---9--9-------------|--5-5---5--9---9--9----------------|


|-------------------------------------|--------------------------------------|
|-------------------------------------|--------------------------------------|
|-------------------------------------|--------------------------------------|
|-------------------------------------|--------------------------------------|
|-------------------10-10-10--9--9--9-|-------------------10-10-10--9--9--9--|
|--9--9--9-12-12-12-------------------|--9--9--9-12-12-12--------------------|


|-------------------------------------|-------------------------------------|
|-------------------------------------|-------------------------------------|
|-------------------------------------|-------------------------------------|
|-------------------------------------|-------------------------------------|
|--------------------7--7--7--6--6--6-|--------------------7--7--7--5--5--5-|
|--6--6--6--9--9--9-------------------|--5--5--5--9--9--9-------------------|


|-------------------------------------|-------------------------------------|
|-------------------------------------|-------------------------------------|
|-------------------------------------|-------------------------------------|
|-------------------------------------|-------------------------------------|
|-------------------10-10-10--9--9--9-|-------------------10-10-10--9--9--9-|
|--9--9--9-12-12-12-------------------|--9--9--9-12-12-12-------------------|


|-------------------------------------|------------------------------------|
|-------------------------------------|------------------------------------|
|-------------------------------------|------------------------------------|
|-------------------------------------|------------------------------------|
|--------------------7--7--7--6--6--6-|--------------------7-7-7--5-5-5----|
|--6--6--6--9--9--9-------------------|--5--5--5--9--9--9------------------|


***Chorus***

||-----0------------|----0------------|----0------------|
||o----0------------|----0------------|----0------------|
||------------------|-----------------|-----------------|
||--------4-4-4-4-4-|-------5-5-5-5-5-|-------9-9-9-9-9-|
||o-4-----4-4-4-4-4-|-5-----5-5-5-5-5-|-9-----9-9-9-9-9-|
||--4-----4-4-4-4-4-|-5-----5-5-5-5-5-|-9-----9-9-9-9-9-|


|----0------------|----0------------|
|----0------------|----0------------|
|-----------------|-----------------|
|-------4-4-4-4-4-|-------5-5-5-5-5-|
|-4-----4-4-4-4-4-|-5-----5-5-5-5-5-|
|-4-----4-4-4-4-4-|-5-----5-5-5-5-5-|


|-----0----------------||-0-------|-(0)------------------|
|-----0---------------o||-0-------|-(0)------------------|
|----------------------||-0-------|-(0)------------------|
|--------9---9-9-9--9--||---------|----------------------|
|-9------9---9-9-9--9-o||---------|----------------------|
|-9------9---9-9-9--9--||---------|-------/9-9-9-9-9-----|

 ***Interlude***

|------------------------------------------|
|------------------------------------------|
|------------------------------------------|
|---6-6-6-6---6----6----6-6-6-6---6----6---|
|---6-6-6-6---6----6----6-6-6-6---6----6---|
|---6-6-6-6---6----6----6-6-6-6---6----6---|


|--------------------------------|-0------------|------------------|
|--------------------------------|-0------------|------------------|
|--------------------------------|-0------------|------------------|
|-5-5-5-5--5---5----5-5--5-5-5-5-|--------------|------------------|
|-5-5-5-5--5---5----5-5--5-5-5-5-|-4--0-0-4-0-0-|--4--0-0-5--6-6---|
|-5-5-5-5--5---5----5-5--5-5-5-5-|-4--0-0-4-0-0-|--4--0-0-5--6-6---|

|-------------------------|------------------------||
|-------------------------|---------------------5/-||
|-------------------------|------------------------||
|-6-6-6-6-6-6-6-6-6-6-6-6-|-5-5-5-5-5-5-5-5-5-5----||
|-6-6-6-6-6-6-6-6-6-6-6-6-|-5-5-5-5-5-5-5-5-5-5----||
|-6-6-6-6-6-6-6-6-6-6-6-6-|-5-5-5-5-5-5-5-5-5-5----||


***Bridge***

||----------15--14--|---------15--14--|
||o-----15----------|-----15----------|
||--16--------------|-16--------------|
||------------------|-----------------|
||o-----------------|-----------------|
||------------------|-----------------|

|---------12--11--|---------12--10---||---------12--10--|
|-----12----------|-----12----------o||-----12----------|
|-13--------------|-12---------------||-12--------------|
|-----------------|------------------||-----------------|
|-----------------|-----------------o||-----------------|
|-----------------|------------------||-----------------|


||----------15--14--|---------15--14--|---------12--11--|
||o-----15----------|-----15----------|-----12----------|
||--16--------------|-16--------------|-13--------------|
||------------------|-----------------|-----------------|
||o-----------------|-----------------|-----------------|
||------------------|-----------------|-----------------|

|---------12--10---||---------12--10--||
|-----12----------o||-----12----------||
|-12---------------||-12--------------||
|------------------||-----------------||
|-----------------o||-----------------||
|------------------||-----------------||


|-------------|-------------||
|-------------|-------------||
|-------------|-------------||
|-9-9-9-9-9-9-|-9-9-9-9-9-9-||
|-9-9-9-9-9-9-|-9-9-9-9-9-9-||
|-9-9-9-9-9-9-|-9-9-9-9-9-9-||

***Chorus 2***

||---------------------------|
||o--------------------------|
||--7------9s7---7-----9s7---|
||-----5-7-----5---5-7-----5-|
||o--------------------------|
||---------------------------|

|--------------------------|----------------------------|
|--------------------------|----------------------------|
|-7------9s7---7-----9s7---|-6------7s6---6-----7s6-----|
|----5-7-----5---5-7-----5-|----4-7-----4---4-7-----4---|
|--------------------------|----------------------------|
|--------------------------|----------------------------|


|---------------------------||
|--------------------------o||
|-6------7s6---6-----7s6----||
|----4-7-----4---4-7-----4--||
|--------------------------o||
|---------------------------||

|--------------------------|---------|-----------------||
|--------------------------|---------|-----------------||
|-6------7s6---6-----7s6---|---------|-----------------||
|----4-7-----4---4-7-----4-|-3-------|-5----(5)--(5)---||
|--------------------------|-3-------|-5----(5)--(5)---||
|--------------------------|-3-------|-5----(5)--(5)---||

***Out-Chorus***

||--14------12--------|-14------12--------|-12--11------------|
||o-----15------15----|-----15------15----|---------12--------|
||--------------------|-------------------|-------------13----|
||--------------------|-------------------|-------------------|
||o-------------------|-------------------|-------------------|
||---9----------------|--9----------------|--6----------------|

|-10-----------------||-10-----------------|
|-------------------o||--------------------|
|-----12--11---------||-----12--11--12-----|
|-------------12-----||--------------------|
|-------------------o||--------------------|
|--5-----------------||--5-----------------|


||--14------12--------|-14------12--------|-12--11------------|
||o-----15------15----|-----15------15----|---------12--------|
||--------------------|-------------------|-------------13----|
||--------------------|-------------------|-------------------|
||o-------------------|-------------------|-------------------|
||---9----------------|--9----------------|--6----------------|

|-10-----------------||-10-----------------|
|-------------------o||---------12---------|
|-----12--11---------||-----12------12-----|
|-------------12-----||--------------------|
|-------------------o||--------------------|
|--5-----------------||--5-----------------|

|-14------12--------|-14------12--------|
|-----15------15----|-----15------15----|
|-------------------|-------------------|
|-------------------|-------------------|
|-------------------|-------------------|
|--9----------------|--9----------------|


|-12--11------------|-10----------------|------*|
|---------12--------|-------------------|------*|
|-------------13----|-----12--11--------|------*|
|-------------------|-------------12----|------*|
|-------------------|-------------------|------*|
|--6----------------|--5----------------|------*|


**************Guitar2

***Intro part 1***

Comes in after first 4 bars of guitar 1's part listen closely and you'll get it

|--------------------------------------|------------------------------------|
|--------------------------------------|------------------------------------|
|--------------------------------------|------------------------------------|
|--9-----------------------------------|-(9)--------------------------------|
|--------------------------------------|------------------------------------|
|--9-----------------------------------|-(9)--------------------------------|

|--------------------------------------|------------------------------------|
|--------------------------------------|------------------------------------|
|--------------------------------------|------------------------------------|
|--6-----------------------------------|--5---------------------------------|
|--------------------------------------|------------------------------------|
|--6-----------------------------------|--5---------------------------------|

|--------------------------------------|------------------------------------|
|--------------------------------------|------------------------------------|
|--------------------------------------|------------------------------------|
|--9-----------------------------------|-(9)--------------------------------|
|--------------------------------------|------------------------------------|
|--9-----------------------------------|-(9)--------------------------------|

|--------------------------------------|------------------------------------|
|--------------------------------------|------------------------------------|
|--------------------------------------|------------------------------------|
|--6-----------------------------------|--5---------------------------------|
|--------------------------------------|------------------------------------|
|--6-----------------------------------|--5---------------------------------|

***intro part 2***

||---------------------------------------|----------------------------------|
||o--------------------------------------|----------------------------------|
||-------------7--7--7-14-14-14-13-13-13-|----------------------------------|
||---9-----------------------------------|--3--6-----6-----3-----5-----5----|
||o--9---------5--5--5-12-12-12-11-11-11-|--3--------------3----------------|
||---9-----------------------------------|--3--------------3----------------|

|-----------------------------------|-----------------------------------||
|-----------------------------------|----------------------------------o||
|--------12-12-12-12s10-10-10-10-10-|-----------------------------------||
|--6--------------------------------|--2--2--2--2--2--5-----5--5--5--5--||
|--6-----10-10-10-10s=8--8--8--8--8-|--2--2--2--2--2--5-----5--5--5--5-o||
|--6--------------------------------|--2--2--2--2--2--5-----5--5--5--5--||

|-----------------14----(14)-------|-(14)-----------------------------|
|----------------------------------|----------------------------------|
|----------------------------------|----------------------------------|
|----------------------------------|----------------------------------|
|----------------------------------|----------------------------------|
|----------------------------------|----------------------------------|


|--------------------------------|-----------------------------------|
|-16---(16)---(16)---------------|-15---(15)---(15)------------------|
|--------------------------------|-----------------------------------|
|--------------------------------|-----------------------------------|
|--------------------------------|-----------------------------------|
|--------------------------------|-----------------------------------|

|-14---(14)----(14)-------------------|-(14)-----------------------------|
|-------------------------------------|----------------------------------|
|-------------------------------------|----------------------------------|
|-------------------------------------|----------------------------------|
|-------------------------------------|----------------------------------|
|-------------------------------------|----------------------------------|

|--------------------------------|-----------------------------------|
|-16---(16)---(16)---------------|-15---(15)---(15)------------------|
|--------------------------------|-----------------------------------|
|--------------------------------|-----------------------------------|
|--------------------------------|-----------------------------------|
|--------------------------------|-----------------------------------|

|-14-14-14-14-14-14-14-14-14-14-14-14-|-14-14-14-14-14-14-14-14-14-14-14-14-|
|-15-15-15-15-15-15-15-15-15-15-15-15-|-15-15-15-15-15-15-15-15-15-15-15-15-|
|-16-16-16-16-16-16-16-16-16-16-16-16-|-16-16-16-16-16-16-16-16-16-16-16-16-|
|-------------------------------------|-------------------------------------|
|-------------------------------------|-------------------------------------|
|-------------------------------------|-------------------------------------|

|-11-11-11-11-11-11-11-11-11-11-11-11-|-10-10-10-10-10-10-10-10-10-10-10-10-|
|-12-12-12-12-12-12-12-12-12-12-12-12-|-12-12-12-12-12-12-12-12-12-12-12-12-|
|-13-13-13-13-13-13-13-13-13-13-13-13-|-12-12-12-12-12-12-12-12-12-12-12-12-|
|-------------------------------------|-------------------------------------|
|-------------------------------------|-------------------------------------|
|-------------------------------------|-------------------------------------|

|-14-14-14-14-14-14-14-14-14-14-14-14-|-14-14-14-14-14-14-14-14-14-14-14-14-|
|-15-15-15-15-15-15-15-15-15-15-15-15-|-15-15-15-15-15-15-15-15-15-15-15-15-|
|-16-16-16-16-16-16-16-16-16-16-16-16-|-16-16-16-16-16-16-16-16-16-16-16-16-|
|-------------------------------------|-------------------------------------|
|-------------------------------------|-------------------------------------|
|-------------------------------------|-------------------------------------|

|-11-11-11-11-11-11-11-11-11-11-11-11-|-10-10-10-10-10-10-10---------------|
|-12-12-12-12-12-12-12-12-12-12-12-12-|-12-12-12-12-12-12-12---------------|
|-13-13-13-13-13-13-13-13-13-13-13-13-|-12-12-12-12-12-12-12---------------|
|-------------------------------------|------------------------------------|
|-------------------------------------|------------------------x-----------|
|-------------------------------------|------------------------x-----------|

||-----0------------|----0------------|----0------------|
||o----0------------|----0------------|----0------------|
||------------------|-----------------|-----------------|
||--------4-4-4-4-4-|-------5-5-5-5-5-|-------9-9-9-9-9-|
||o-4-----4-4-4-4-4-|-5-----5-5-5-5-5-|-9-----9-9-9-9-9-|
||--4-----4-4-4-4-4-|-5-----5-5-5-5-5-|-9-----9-9-9-9-9-|


|----0------------|----0------------|
|----0------------|----0------------|
|-----------------|-----------------|
|-------4-4-4-4-4-|-------5-5-5-5-5-|
|-4-----4-4-4-4-4-|-5-----5-5-5-5-5-|
|-4-----4-4-4-4-4-|-5-----5-5-5-5-5-|

|----------------------||-0-------|-(0)---------------||
|---------------------o||-0-------|-(0)---------------||
|----------------------||-0-------|-(0)---------------||
|-----9----------------||-0-------|-(0)---------------||
|-7s9-9--7-9-7-9-7---o-||-0-------|-(0)---------------||
|-7s9-9--7-9-7-9-7-----||-0-------|-(0)---------------||

***Interlude***

|--/10-------(10)-(10)-10--------(10)-(10)-|
|------------------------------------------|
|------------------------------------------|
|------------------------------------------|
|------------------------------------------|
|------------------------------------------|


|--9-------(9)-(9)-16---17-------|-0------------|-(0)--------------|
|--------------------------------|-0------------|-(0)--------------|
|--------------------------------|-0------------|-(0)--------------|
|--------------------------------|--------------|------------------|
|--------------------------------|--------------|----------x-------|
|--------------------------------|--------------|----------x-------|

|-------------------------|---------------------2/-||
|-------------------------|------------------------||
|-------------------------|------------------------||
|-------------------------|------------------------||
|-------------------------|------------------------||
|-6-6-6-6-6-6-6-6-6-6-6-6-|-5-5-5-5-5-5-5-5-5-5----||


||--14------12------|-14------12------|
||o-----15------15--|-----15------15--|
||------------------|-----------------|
||------------------|-----------------|
||o-----------------|-----------------|
||------------------|-----------------|

|-12--11----------|-10---------------||-10--------------|
|---------12------|-----------------o||---------12------|
|-------------13--|-----12--11-------||-----12------12/-|
|-----------------|-------------12---||-----------------|
|-----------------|-----------------o||-----------------|
|-----------------|------------------||-----------------|


||--14------12------|-14------12------|-12--11----------|
||o-----15------15--|-----15------15--|---------12------|
||------------------|-----------------|-------------13--|
||------------------|-----------------|-----------------|
||o-----------------|-----------------|-----------------|
||------------------|-----------------|-----------------|

|-10---------------||-10--------------||
|-----------------o||-----------------||
|-----12--11--12/--||-----12--11------||
|------------------||-------------12--||
|-----------------o||-----------------||
|------------------||-----------------||

|-------------|-------------||
|-------------|-------------||
|-------------|-------------||
|-9-9-9-9-9-9-|-9-9-9-9-9-9-||
|-9-9-9-9-9-9-|-9-9-9-9-9-9-||
|-9-9-9-9-9-9-|-9-9-9-9-9-9-||

***Chorus 2***

||---------------------------|
||o--------------------------|
||---------------------------|
||--3------3---3-3---3---3---|
||o-3------3---3-3---3---3---|
||--3------3---3-3---3---3---|

|--------------------------|----------------------------|
|--------------------------|----------------------------|
|--------------------------|----------------------------|
|-5------5---5-5---5---5---|-4------4---4-4---4---4-----|
|-5------5---5-5---5---5---|-4------4---4-4---4---4-----|
|-5------5---5-5---5---5---|-4------4---4-4---4---4-----|

|---------------------------||
|--------------------------o||
|---------------------------||
|-4------4---4-4---4---4----||
|-4------4---4-4---4---4---o||
|-4------4---4-4---4---4----||

|--------------------------|---------|-----------------||
|--------------------------|---------|-----------------||
|--------------------------|---------|-----------------||
|-2------2---2-2---2-2-2-2-|-3-------|-5----(5)--(5)---||
|-2------2---2-2---2-2-2-2-|-3-------|-5----(5)--(5)---||
|-2------2---2-2---2-2-2-2-|-3-------|-5----(5)--(5)---||

***out chorus***

same as guitar one.

Enjoy and comments welcome....go easy its my first tab ;)

            
            
Suggest correction
Creating personal tab
Creating personal tab
You can edit any tab online and save it as your Personal.

You can edit, replace or remove any tab part or add personal notes – all changes will be seen only by you.

Personal tabs can be accessed anytime from any device, even offline.
Learn more »
Give kudos to tab author, rate the tab!
1 2 3 4 5
comments
print report bad tab
1 comment total.
+1 reply
albertad 84 Oct 21, 2007 01:05 PM

This is a really great tab. Well made, good job!

guest
Wanna post a correction for this tab? Suggest correction