Oops, an error
Loading. Please wait.

Failure In The Flesh bass

version 1
version 1

Whole song

Interactive

835 views 1 this week
1 commentread comment
1 2 3 4 5
2 more votes to show rating
add to favorites
×
Save as Personal and add changes to this tab that will be seen only by you. Learn more ›
×
You can save this tab as Personal to edit and correct it or add notes. All changes will be seen only by you. Learn more »
launch autoscroll
font size
0
reset
guitar tuner
edit
Autoscroll
slow
fast
+/-
esc
set tempo
stop
Listen to the song for timing..
Learn the song, it's pretty fun to play.

Intro
[Play this x4, still play at same speed when drums get faster.]
|-----------------------------------------------------------------|
|-----------------------------------------------------------------|
|-----------------------------2-3-----------------------------2-3-|
|-0-1-3-4-0-2-3-1-0-1-3-4-0-3-----0-1-3-4-0-2-3-1-4-2-0-0-3-1-----|

            [Guitar fill after 0~]  
|-----------------------------------------------------------------|
|-----------------------------------------------------------------|
|-------------4-3-------------------------------------------------|
|-4-2-0-0-3-1-----0~---------------0-00-0-00-0~--------0-00-0-00-0|

[Play this as soon as vocal fill finishes.]      [Starts at 0:47]
|-----------------------------------------------------------------
|-----------------------------------------------------------------
|-------------3-4-1-2-3-----------------------------4-5-2-3-4-----
|-0-0-2-3-1-0-----------0-0-2-3-1-0-00-0-00-3-4-2-0-----------0-0-

         [Play x2]        
 -----------------|
 -----------------|
 -----------------|
 -3-4-2-0-00-0-00-|

[Starts at 1:05]
|--------------------------------------------------------------------|
|------------------------------------------------------------2-4-3-5-|
|-------------------------1--3--2--4-----------------1-3-2-4---------|
|-3-1-1-3-4-1-1-3-4-1-1-1------------3-1-1-3-4-1-1-1-----------------|


|-------------------------------------------------------------------|
|-------------------------------------------------------------------|
|-------------------------1--3--2--4--------------------------------|
|-3-1-1-3-4-1-1-3-4-1-1-1------------3-1-1-3-4-1-1-1--0------0------|

[Starts at 1:23]
|--------------------------------------------------------------------|
|--------------------------------------------------------------------|
|--------------------------------------------------------------------|
|-2~----1~----3~----5~----6~----8~----6~----4~----1-0-0-1-0-0--------|


|--------------------------------------------------------------------|
|--------------------------------------------------------------------|
|--------------------------------------------------------------------|
|-2~----1~----3~----5~----6~----8~----6~----4~----0------------------|

[Play after drum fill, starts at 1:42]
|-----------------------------------------------------------------
|-----------------------------------------------------------------
|-------------3-4-1-2-3-----------------------------4-5-2-3-4-----
|-0-0-2-3-1-0-----------0-0-2-3-1-0-00-0-00-3-4-2-0-----------0-0-

         [Play x2]        
 -----------------|
 -----------------|
 -----------------|
 -3-4-2-0-00-0-00-|

[Starts at 1:59]
|--------------------------------------------------------------------|
|------------------------------------------------------------2-4-3-5-|
|-------------------------1--3--2--4-----------------1-3-2-4---------|
|-3-1-1-3-4-1-1-3-4-1-1-1------------3-1-1-3-4-1-1-1-----------------|


|-------------------------------------------------------------------|
|-------------------------------------------------------------------|
|-------------------------1--3--2--4--------------------------------|
|-3-1-1-3-4-1-1-3-4-1-1-1------------3-1-1-3-4-1-1-1--0------0------|

[Starts at 2:16]
|--------------------------------------------------------------------|
|--------------------------------------------------------------------|
|--------------------------------------------------------------------|
|-2~----1~----3~----5~----6~----8~----6~----4~----1-0-0-1-0-0--------|


|--------------------------------------------------------------------|
|--------------------------------------------------------------------|
|--------------------------------------------------------------------|
|-2~----1~----3~----5~----6~----8~----6~----4~----0--------0---------|

[Starts at 2:35]   [x4] [Then play this while guitar fill.]
|---------------------|-----------------|
|---------------------|-----------------|
|---------------------|-----------------|
|-0~--00--0-00-0~--00-|0----0----0----0-|

[Starts at 2:55, play x4]  
|---------------------|
|---------------------|
|---------------------|
|-0~--00--0-00-0~--00-|

[Play while the guitar solo is playing, x16, starts at 3:14]    
|---------|
|---------|
|---------|
|-3-1-1-1-|

[Starts at 3:32]
|--------------------------------------------------------------------|
|--------------------------------------------------------------------|
|--------------------------------------------------------------------|
|-2~----1~----3~----5~----6~----8~----6~----4~----1-0-0-1-0-0--------|


|--------------------------------------------------------------------|
|--------------------------------------------------------------------|
|--------------------------------------------------------------------|
|-2~----1~----3~----5~----6~----8~----6~----4~----0--------0---------|

[Starts at 3:49]
|-------------------------------------------------------------------|
|-------------------------------------------------------------------|
|-------------------------------------------------------------------|
|-4-1-1-1-1-4-1-1-1-1-4-1-1-1-1-4-1-1-1-1---------------------------|

[Starts at 3:54]
|------------------------------------------------------------------|
|------------------------------------------------------------------|
|------------------------------------------------------------------|
|-000000----000000----000000----000000----000000----000000----0----|


Fuck yeah!
Hope you enjoyed cunts, although no one's probably gunna learn this.

            
            
Suggest correction
Creating personal tab
Creating personal tab
You can edit any tab online and save it as your Personal.

You can edit, replace or remove any tab part or add personal notes – all changes will be seen only by you.

Personal tabs can be accessed anytime from any device, even offline.
Learn more »
Give kudos to tab author, rate the tab!
1 2 3 4 5
comments
print report bad tab
1 comment total.
0 reply
columbianneckti 71 Mar 26, 2009 06:14 PM

Dude, this isn't in drop d, its in drop b, and its pretty much wrong cause I saw them live, front row, not the way to play it

guest
You may want to rate the tab now too:
select rating
Wanna post a correction for this tab? Suggest correction