Oops, an error
Loading. Please wait.

Failure In The Flesh bass

version 2
version 2

Whole song

Interactive

351 views 1 this week
no commentswrite comment
1 2 3 4 5
2 more votes to show rating
add to favorites
×
Save as Personal and add changes to this tab that will be seen only by you. Learn more ›
×
You can save this tab as Personal to edit and correct it or add notes. All changes will be seen only by you. Learn more »
launch autoscroll
font size
0
reset
guitar tuner
edit
Autoscroll
slow
fast
+/-
esc
set tempo
stop
Failure in the Flesh by TTEOTD
Im pretty sure this tab is almost 90% right, though I'm not sure of the sweeping part in 
2nd verse is right.
Drop B tuning
P.S. This song is play on a 5-string, but I tabbed it on a 4-string since I 
dislike 5-string basses

Key:
>>>>=let the note ring
h=hammer ons
p=pull off
()= i put thes around some notes so people wouldn't confused them with other notes. 
11 is played on the 11th fret, (1)(1) is played on the 1st fret

Intro:
-----------------------------------------------------------------|
-----------------------------------------------------------------|   x 4
-----------------------------3-6---------------------------------|
-1-0-4-7-4-0-8-5-1-0-4-7-4-0-----1-0-4-7-4-0-8-5-1-0-0-0-1-0-3-4-|


this is played right after the 4 time
-------------------------------|
-------------------------------|   (let it ring while lead guitar is playing)
-------------------------------|
-1-0-0-0-4-0-4-3-0>>>>>>-------|


--------------------------------------------------|
--------------------------------------------------|
-----------1>>>>>---------------------------------|
-0-00-0-00--------1-(1)(1)-1-(1)(1)---------------|


Verse 1(this part is really fast and I find it easier to play on one string than hopping 
1st and 3rd string)
------------------------------------------------------------------------|
------------------------------------------------------------------------|
------------------------------------------------------------------------|
-12p0-12p0-12h13p12-16p0-16h17-13p0-13h16-12p0-12p0-12h13p12-0-00-0-00--|


-----------------------------------------------------------------------------|
-----------------------------------------------------------------------------|
-------------------------13p12p10---10h12------------------------------------|
-12p0-12p0-12h13p12-16p0----------0-------16p0-16p0-16h17p16-1-(1)(1)-1------|(1)


-----
-----  x2
-----
(1)--


Verse 2
-----------------------------------3h5------|
------------------------------3h5h6---------|
-5-5-5-3-6-6-6-3-5-5-5-5-3h5h6--------------|
--------------------------------------------|


---------------------------3h5----------5h7-|
----------------------3h5h6--------5h7h8----|    x2
-5-5-5-3-6-6-6-3-3h5h6--------5h7h8---------|
--------------------------------------------|


--------------------------------------------------|
--------------------------------------------------|     x2
-----3>-------------------------------------------|
-0>------4>--5-7-8>--7>--4>--1-1-1-1-1-1----------|


Verse 1 is repeated after Verse 2
------------------------------------------------------------------------|
------------------------------------------------------------------------|
------------------------------------------------------------------------|
-12p0-12p0-12h13p12-16p0-16h17-13p0-13h16-12p0-12p0-12h13p12-0-00-0-00--|


-----------------------------------------------------------------------------|
-----------------------------------------------------------------------------|
-------------------------13p12p10---10h12------------------------------------|
-12p0-12p0-12h13p12-16p0----------0-------16p0-16p0-16h17p16-1-(1)(1)-1------|(1)


-----
-----  x2
-----
(1)--

Verse 2 repeats after Verse 1
-----------------------------------3h5------|
------------------------------3h5h6---------|
-5-5-5-3-6-6-6-3-5-5-5-5-3h5h6--------------|
--------------------------------------------|


---------------------------3h5----------5h7-|
----------------------3h5h6--------5h7h8----|    x2
-5-5-5-3-6-6-6-3-3h5h6--------5h7h8---------|
--------------------------------------------|


--------------------------------------------------|
--------------------------------------------------|
-----3>-------------------------------------------|
-0>------4>--5-7-8>--7>--4>--1-1-1-1-1-1----------|


--------------------------------------------------|
--------------------------------------------------|
-----3>-------------------------------------------|
-0>------4>--5-7-8>--7>--4>--1--------------------|


Breakdown:
--------------------------|
--------------------------|   x4
--------------------------|
-000000--0-000-0000-------|


-7p5-----------7p5-----------11p8--------------------------|
----8p7h8p7p5h7---8p7h8p7p5h7----12p10h12p10p9p10----------|
-----------------------------------------------------------|
-------------------------------------------------0---------|


--------------------------|
--------------------------|     x2
--------------------------|
-000000--0-000-0000-------|

Played on first fret
--------------------------|
--------------------------|     x2
--------------------------|
-111111--1-111-1111-------|


Verse 3
------------------|
------------------|    x8
------------------|
-6-0-0-6-0-0-6-0--|


--------------------------------------------------|
--------------------------------------------------|
-----3>-------------------------------------------|
-0>------4>--5-7-8>--7>--4>--1-1-1-1-1-1----------|


--------------------------------------------------|
--------------------------------------------------|
-----3>-------------------------------------------|
-0>------4>--5-7-8>--7>--4>--1--------------------|


Outro/Breakdown
-------------------------------------------------------------|
-------------------------------------------------------------|  guitar and
-------------------------------------------------------------| bass alternate
-6-0-0-0-0-0-6-0-0-6-0-0-6-0-0-0-0-0-6-0-0-6-0-0-6-0-0-0-0-0-|  so there are
                                                             pauses for bass

------------------------|
------------------------|
------------------------|
-6-0-0-6-0-0-6>>>>>-----|


Hope you enjoy

-columbianneckti

            
            
Suggest correction
Creating personal tab
Creating personal tab
You can edit any tab online and save it as your Personal.

You can edit, replace or remove any tab part or add personal notes – all changes will be seen only by you.

Personal tabs can be accessed anytime from any device, even offline.
Learn more »
Give kudos to tab author, rate the tab!
1 2 3 4 5
comments
print report bad tab
guest
You may want to rate the tab now too:
select rating
Wanna post a correction for this tab? Suggest correction