Oops, an error
Loading. Please wait.

Force Fed Trauma bass

version 1
version 1

Whole song

Interactive

190 views 1 this week
no commentswrite comment
1 2 3 4 5
3 more votes to show rating
add to favorites
×
Save as Personal and add changes to this tab that will be seen only by you. Learn more ›
×
You can save this tab as Personal to edit and correct it or add notes. All changes will be seen only by you. Learn more »
launch autoscroll
font size
0
reset
guitar tuner
edit
Autoscroll
slow
fast
+/-
esc
set tempo
stop
Band – Through the Eyes of the Dead
Album – Bloodlust
Song – Force Fed Trauma
Transcriber – Bryan H. and Ty B.
Tuning – Drop B


      H.           E  E   
E ||---------------------|
B ||---------------------|
F#||--5------------------|
B ||---------------0--0--|


   H         H           W                 
|---------------------|-------------------|
|---------------------|-------------------|
|--1--------/7--------|--5----------------|
|---------------------|-------------------|


   W                  
|-------------------||
|------------------o||
|--L---------------o||
|-------------------||
                    6x


   E  H.           E   
|---------------------|
|---------------------|
|---------------------|
|--0---------------0--|


   E  Q.     E  E  E  E   
|------------------------|
|------------------------|
|------------------------|
|--0---------0--0--0--0--|


   E  H.           E     H        H         
|---------------------|--------------------|
|---------------------|--------------------|
|---------------------|--------------------|
|--0---------------0--|--3--------2--------|


   S S S S S S S S S S S S S S S S  
|----------------------------------|
|----------------------------------|
|------8-8-7-7-5-5-5-5-4-4-5-5-7-7-|
|--0-0-----------------------------|


   S S S S S S S S  S  S S S S S S S  
|------------------------------------|
|------------------------------------|
|------8-8-7-7-5-5-10-10-8-8-7-7-8-8-|
|--0-0-------------------------------|


   S S S S S S S S S S S S S S S S  
|----------------------------------|
|----------------------------------|
|------8-8-7-7-5-5-5-5-4-4-5-5-7-7-|
|--0-0-----------------------------|


   E  E  S S E  E  E  S S E   
|----------------------------|
|----------------------------|
|--------5-7-8--------4-5-7--|
|--0--0---------0--0---------|


   S S S S S S S S S S S S S S S S  
|----------------------------------|
|----------------------------------|
|------5-5-4-4-2-2-2-2-1-1-2-2-4-4-|
|--0-0-----------------------------|


   S S S S S S S S S S S S S S S S  
|----------------------------------|
|----------------------------------|
|------5-5-4-4-2-2-7-7-5-5-4-4-5-5-|
|--0-0-----------------------------|


   S S S S S S S S S S S S S S S S  
|----------------------------------|
|----------------------------------|
|------5-5-4-4-2-2-2-2-1-1-2-2-4-4-|
|--0-0-----------------------------|


   E  E  S S E  E  E  S S E   
|----------------------------|
|----------------------------|
|--------5-7-8--------4-5-7--|
|--0--0---------0--0---------|


   E  S S S S S S S S S S S S S S  
|---------------------------------|
|---------------------------------|
|--5--------------8-----8-----7---|
|-----0-0-0-0-0-0---0-0---0-0---0-|


   E  S S S S S S S S S S S S S S  
|---------------------------------|
|---------------------------------|
|--5--------------8-----8-----4-7-|
|-----0-0-0-0-0-0---0-0---0-0-----|


   E  S S S S S S S S S S S S S S  
|---------------------------------|
|---------------------------------|
|--5--------------8-----8-----7---|
|-----0-0-0-0-0-0---0-0---0-0---0-|


   S S S S S S S S S S S S S S S S  
|----------------------------------|
|----------------------------------|
|--5-5-5-5-5-5-7-7-8-8-8-8-7-7-7-7-|
|----------------------------------|


   E  S S S S S S S S S S S S S S  
|---------------------------------|
|---------------------------------|
|--5--------------8-----8-----7---|
|-----0-0-0-0-0-0---0-0---0-0---0-|


   E  S S S S S S S S S S S S S S  
|---------------------------------|
|---------------------------------|
|--5--------------8-----8-----4-7-|
|-----0-0-0-0-0-0---0-0---0-0-----|


   E  S S S S S S S S S S S S S S  
|---------------------------------|
|---------------------------------|
|--5--------------8-----8-----7---|
|-----0-0-0-0-0-0---0-0---0-0---0-|


   S S S S S S S S S S S S S S S S  
|----------------------------------|
|----------------------------------|
|--5-5-5-5-5-5-7-7-8-8-8-8-7-7-7-7-|
|----------------------------------|


   S S E    Q    S S E    Q     
|------------------------------|
|------------------------------|
|------------------------------|
|--0-0-7S--12----0-0-8S--14----|


   S S E    Q    S S E   E  E   
|------------------------------|
|------------------------------|
|------5S--10--------5S--8--7--|
|--8-8-----------0-0-----------|


   S S E    Q    S S E    Q     
|------------------------------|
|------------------------------|
|------------------------------|
|--0-0-7S--12----0-0-8S--14----|


   S S S S S S  S  S  S  S S S S S S S  
|--------------------------------------|
|--------------------------------------|
|------7-7-8-8-12-12-10-10-8-8-7-7-----|
|--0-0-----------------------------8-8-|


   S S E    Q    S S E    Q     
|------------------------------|
|------------------------------|
|------------------------------|
|--0-0-7S--12----0-0-8S--14----|


   S S E    Q    S S E   E  E   
|------------------------------|
|------------------------------|
|------5S--10--------5S--8--7--|
|--8-8-----------0-0-----------|


   S S E    Q    S S E    Q     
|------------------------------|
|------------------------------|
|------------------------------|
|--0-0-7S--12----0-0-8S--14----|


   S S S S S S S S S S S S S S S S  
|----------------------------------|
|----------------------------------|
|------4-4-5-5-8-8-----4-4-5-5-7-7-|
|--0-0-------------0-0-------------|


   S S S S S S S S S S S S S S S S  
|----------------------------------|
|----------------------------------|
|------8-8-7-7-5-5-5-5-4-4-5-5-7-7-|
|--0-0-----------------------------|


   S S S S S S S S  S  S S S S S S S  
|------------------------------------|
|------------------------------------|
|------8-8-7-7-5-5-10-10-8-8-7-7-8-8-|
|--0-0-------------------------------|


   S S S S S S S S S S S S S S S S  
|----------------------------------|
|----------------------------------|
|------8-8-7-7-5-5-5-5-4-4-5-5-7-7-|
|--0-0-----------------------------|


   E  E  S S E  E  E  S S E   
|----------------------------|
|----------------------------|
|--------5-7-8--------4-5-7--|
|--0--0---------0--0---------|


   S S S S S S S S S S S S S S S S  
|----------------------------------|
|----------------------------------|
|------5-5-4-4-2-2-2-2-1-1-2-2-4-4-|
|--0-0-----------------------------|


   S S S S S S S S S S S S S S S S  
|----------------------------------|
|----------------------------------|
|------5-5-4-4-2-2-7-7-5-5-4-4-5-5-|
|--0-0-----------------------------|


   S S S S S S S S S S S S S S S S  
|----------------------------------|
|----------------------------------|
|------5-5-4-4-2-2-2-2-1-1-2-2-4-4-|
|--0-0-----------------------------|


   E  E  S S E  E  E  S S E   
|----------------------------|
|----------------------------|
|--------5-7-8--------4-5-7--|
|--0--0---------0--0---------|


   E  S S S S S S S S S S S S S S  
|---------------------------------|
|---------------------------------|
|--5--------------8-----8-----7---|
|-----0-0-0-0-0-0---0-0---0-0---0-|


   E  S S S S S S S S S S S S S S  
|---------------------------------|
|---------------------------------|
|--5--------------8-----8-----4-7-|
|-----0-0-0-0-0-0---0-0---0-0-----|


   E  S S S S S S S S S S S S S S  
|---------------------------------|
|---------------------------------|
|--5--------------8-----8-----7---|
|-----0-0-0-0-0-0---0-0---0-0---0-|


   S S S S S S S S S S S S S S S S  
|----------------------------------|
|----------------------------------|
|--5-5-5-5-5-5-7-7-8-8-8-8-7-7-7-7-|
|----------------------------------|


   E  S S S S S S S S S S S S S S  
|---------------------------------|
|---------------------------------|
|--5--------------8-----8-----7---|
|-----0-0-0-0-0-0---0-0---0-0---0-|


   E  S S S S S S S S S S S S S S  
|---------------------------------|
|---------------------------------|
|--5--------------8-----8-----4-7-|
|-----0-0-0-0-0-0---0-0---0-0-----|


   E  S S S S S S S S S S S S S S  
|---------------------------------|
|---------------------------------|
|--5--------------8-----8-----7---|
|-----0-0-0-0-0-0---0-0---0-0---0-|


   S S S S S S S S S S S S S S S S  
|----------------------------------|
|----------------------------------|
|--5-5-5-5-5-5-7-7-8-8-8-8-7-7-7-7-|
|----------------------------------|


   E  E  H.              E  E  H.            
|---------------------|---------------------|
|---------------------|---------------------|
|---------------------|---------------------|
|--0--0---------------|--0--0---------------|


   E  E  S S S S S S S S S S S S  
|--------------------------------|
|--------------------------------|
|--------------------------------|
|--2--2--2-2-2-2-2-2-2-2-2-2-2-2-|


   E  E  S S S S S S S S S S S S  
|--------------------------------|
|--------------------------------|
|--------------------------------|
|--3--3--3-3-3-3-3-3-3-3-3-3-3-3-|


   E  E  S S S S S S S S S S S S  
|--------------------------------|
|--------------------------------|
|--------------------------------|
|--0--0--0-0-0-0-0-0-0-0-0-0-0-0-|


   E  E  S S S S S S S S S S S S  
|--------------------------------|
|--------------------------------|
|--------------------------------|
|--0--0--0-0-0-0-0-0-0-0-0-0-0-0-|


   E  E  S S S S S S S S S S S S  
|--------------------------------|
|--------------------------------|
|--------------------------------|
|--2--2--2-2-2-2-2-2-2-2-2-2-2-2-|


   E  E  S S S S S S S S S S S S  
|--------------------------------|
|--------------------------------|
|--------------------------------|
|--3--3--3-3-3-3-3-3-3-3-3-3-3-3-|


   E  E  S S S S S S S S S S S S  
|--------------------------------|
|--------------------------------|
|--------------------------------|
|--0--0--0-0-0-0-0-0-0-0-0-0-0-0-|


   E  E  S S S S S S S S S S S S  
|--------------------------------|
|--------------------------------|
|--------------------------------|
|--0--0--0-0-0-0-0-0-0-0-0-0-0-0-|


   E  E  S S S S S S S S S S S S  
|--------------------------------|
|--------------------------------|
|--------------------------------|
|--2--2--2-2-2-2-2-2-2-2-2-2-2-2-|


   E  E  S S S S S S S S S S S S  
|--------------------------------|
|--------------------------------|
|--------------------------------|
|--3--3--3-3-3-3-3-3-3-3-3-3-3-3-|


   W                   W                 
|-------------------|-------------------|
|-------------------|-------------------|
|-------------------|-------------------|
|-------------------|-------------------|
              (REST 8Beats)

   W                    W                 
|-------------------|--------------------|
|-------------------|--------------------|
|-------------------|--/5----------------|
|-------------------|--------------------|


   W                   W                 
|-------------------|-------------------|
|-------------------|-------------------|
|--L----------------|--L----------------|
|-------------------|-------------------|


   W                    W                 
|-------------------|--------------------|
|-------------------|--------------------|
|--L----------------|--/L----------------|
|-------------------|--------------------|


   W                   H.           E  S S  
|-------------------|----------------------|
|-------------------|----------------------|
|--L----------------|----------------------|
|-------------------|--0------------L--0-0-|


   |-3-| |-3-| |-3-| |-3-| |-3-| |-3-| |-3-| |
   S S S S S S S S S S S S S S S S S S S S S S
|---------------------------------------------|
|---------------------------------------------|
|---------------------------------------------|
|--0-0-0-9-9-9-5-5-5-2-2-2-9-9-9-5-5-5-2-2-2-9|


   |-3-|  |--3--| |-3-| |-3-|  |--3--| |-3-| |
   S S S  S  S  S S S S S S S  S  S  S S S S S
|---------------------------------------------|
|---------------------------------------------|
|---------------------------------------------|
|--2-2-2-10-10-10-9-9-9-5-5-5-10-10-10-9-9-9-5|


                                       TP     
   |-3-| |-3-| |-3-| |-3-| |-3-| |-3-|        
   S S S S S S S S S S S S S S S S S S Q      
|--------------------------------------------|
|--------------------------7-7-7-------------|
|--------5-5-5-7-7-7-8-8-8-------5-5-5-8\----|
|--0-0-0-------------------------------------|


   |-3-| |-3-| |-3-| |-3-| |-3-| |-3-| |-3-| |
   S S S S S S S S S S S S S S S S S S S S S S
|---------------------------------------------|
|---------------------------------------------|
|---------------------------------------------|
|--0-0-0-9-9-9-5-5-5-2-2-2-9-9-9-5-5-5-2-2-2-9|


   |-3-|  |--3--| |-3-| |-3-|  |--3--| |-3-| |
   S S S  S  S  S S S S S S S  S  S  S S S S S
|---------------------------------------------|
|---------------------------------------------|
|---------------------------------------------|
|--2-2-2-10-10-10-9-9-9-5-5-5-10-10-10-9-9-9-5|


                                      TP     
   |-3-| |-3-| |-3-| |-3-| |-3-| |-3-|        
   S S S S S S S S S S S S S S S S S S Q      
|--------------------------------------------|
|--------------------------7-7-7-------------|
|--------5-5-5-7-7-7-8-8-8-------5-5-5-8\----|
|--0-0-0-------------------------------------|


  |-3-| |-3-| |-3-| |-3-| |-3-| |-3-| |-3-| |
   S S S S S S S S S S S S S S S S S S S S S S
|---------------------------------------------|
|---------------------------------------------|
|---------------------------------------------|
|--0-0-0-9-9-9-5-5-5-2-2-2-9-9-9-5-5-5-2-2-2-9|


   |-3-|  |--3--| |-3-| |-3-|  |--3--| |-3-| |
   S S S  S  S  S S S S S S S  S  S  S S S S S
|---------------------------------------------|
|---------------------------------------------|
|---------------------------------------------|
|--2-2-2-10-10-10-9-9-9-5-5-5-10-10-10-9-9-9-5|


                                      TP     
   |-3-| |-3-| |-3-| |-3-| |-3-| |-3-|        
   S S S S S S S S S S S S S S S S S S Q      
|--------------------------------------------|
|--------------------------7-7-7-------------|
|--------5-5-5-7-7-7-8-8-8-------5-5-5-8\----|
|--0-0-0-------------------------------------|


   |-3-| |-3-| |-3-| |-3-| |-3-| |-3-| |-3-| |
   S S S S S S S S S S S S S S S S S S S S S S
|---------------------------------------------|
|---------------------------------------------|
|---------------------------------------------|
|--0-0-0-9-9-9-5-5-5-2-2-2-9-9-9-5-5-5-2-2-2-9|


   |-3-|  |--3--| |-3-| |-3-|  |--3--| |-3-| |
   S S S  S  S  S S S S S S S  S  S  S S S S S
|---------------------------------------------|
|---------------------------------------------|
|---------------------------------------------|
|--2-2-2-10-10-10-9-9-9-5-5-5-10-10-10-9-9-9-5|


   S S Q    S S E  S S Q     
|---------------------------|
|---------------------------|
|---------------------------|
|--0-0------0-0----0-0------|


   S S Q    S S E  S S Q     
|---------------------------|
|---------------------------|
|---------------------------|
|--0-0------0-0----0-0------|


   S S Q    S S E  S S Q     
|---------------------------|
|---------------------------|
|---------------------------|
|--0-0------0-0----0-0------|


   S S Q    S S E.  E.  E   
|--------------------------|
|---------------7---7------|
|-----------------------7--|
|--0-0------0-0------------|


  S S E  E  S S E  S S S S E   
|------------------------------|
|------------------------------|
|----------------5------4-5-7--|
|--0-0-8--7--0-0----0-0--------|


  S S E  E  S S E  S S S S E   
|------------------------------|
|------------------------------|
|------7--5------8------5-7-8--|
|--0-0-------0-0----0-0--------|


  S S E  E  S S E  S S S S E   
|------------------------------|
|------------------------------|
|----------------5------1-4-5--|
|--0-0-8--7--0-0----0-0--------|


   S S E  E  S S S S S S S S E   
|-------------------------------|
|-------------------------------|
|------5--4------8-7-5-8-7-5-4--|
|--0-0-------0-0----------------|


  S S E  E  S S E  S S S S E   
|------------------------------|
|------------------------------|
|----------------5------4-5-7--|
|--0-0-8--7--0-0----0-0--------|


   S S E  E  S S E  S S S S E   
|------------------------------|
|------------------------------|
|------7--5------8------5-7-8--|
|--0-0-------0-0----0-0--------|


   S S E  E  S S E  S S S S E   
|------------------------------|
|------------------------------|
|----------------5------1-4-5--|
|--0-0-8--7--0-0----0-0--------|


   S S E  E  S S S S S S S S E   
|-------------------------------|
|-------------------------------|
|------5--4------8-7-5-8-7-5-4--|
|--0-0-------0-0----------------|


   W                   W                 
|-------------------|-------------------|
|-------------------|-------------------|
|-------------------|-------------------|
|-------------------|-------------------|
              (REST 8Beats)

   E  E  E  E  E  E  E  E   
|--------------------------|
|--------------------------|
|--------------------------|
|--0--2--3--2--3--4--3--2--|


   E  E  E  E  E  E  E  E   
|--------------------------|
|--------------------------|
|-----------------------0--|
|--0--2--3--2--3--4--3-----|


   E  E  E  E  E  E  E  E   
|--------------------------|
|--------------------------|
|--------------------------|
|--0--2--3--2--3--4--3--2--|


   E  E  E  E  E  E  E  E   
|--------------------------|
|--------------------------|
|--------------------------|
|--0--2--3--2--3--4--3--2--|


   E  E  E  E  E  E  E  E   
|--------------------------|
|--------------------------|
|--------------------------|
|--0--2--3--2--3--4--3--2--|


   E  E  E  E  E  E  E  E   
|--------------------------|
|--------------------------|
|-----------------------0--|
|--0--2--3--2--3--4--3-----|


   E  E  E  E  E  E  E  E   
|--------------------------|
|--------------------------|
|--------------------------|
|--0--2--3--2--3--4--3--2--|


   E  E  E  E  E  E  E  E   
|--------------------------|
|--------------------------|
|--------------------------|
|--0--2--3--2--3--4--3--2--|


   E  E  E  E  E  E  E  E   
|--------------------------|
|--------------------------|
|--------------------------|
|--0--2--3--2--3--4--3--2--|


   E  E  E  E  E  E  E  E   
|--------------------------|
|--------------------------|
|-----------------------0--|
|--0--2--3--2--3--4--3-----|


   H.           E  E     H         H         
|---------------------|---------------------|
|---------------------|---------------------|
|--5------------------|--1--------/7--------|
|---------------0--0--|---------------------|


   W                   W                 
|-------------------|-------------------|
|-------------------|-------------------|
|--5----------------|--L----------------|
|-------------------|-------------------|


   H.           E  E     H         H         
|---------------------|---------------------|
|---------------------|---------------------|
|--5------------------|--1--------/7--------|
|---------------0--0--|---------------------|


   W                   W                 
|-------------------|-------------------|
|-------------------|-------------------|
|--5----------------|--L----------------|
|-------------------|-------------------|


   H.           E  E     H         H         
|---------------------|---------------------|
|---------------------|---------------------|
|--5------------------|--1--------/7--------|
|---------------0--0--|---------------------|


   W                   W                 
|-------------------|-------------------|
|-------------------|-------------------|
|--5----------------|--L----------------|
|-------------------|-------------------|


   H.           E  E     H         H         
|---------------------|---------------------|
|---------------------|---------------------|
|--5------------------|--1--------/7--------|
|---------------0--0--|---------------------|


   W                   W                 
|-------------------|-------------------|
|-------------------|-------------------|
|--5----------------|--L----------------|
|-------------------|-------------------|


   H.           E  E     H         H         
|---------------------|---------------------|
|---------------------|---------------------|
|--5------------------|--1--------/7--------|
|---------------0--0--|---------------------|


   W                   W                 
|-------------------|-------------------|
|-------------------|-------------------|
|--5----------------|--L----------------|
|-------------------|-------------------|


   H.           E  E     H         H         
|---------------------|---------------------|
|---------------------|---------------------|
|--5------------------|--1--------/7--------|
|---------------0--0--|---------------------|


   W                   W                  
|-------------------|-------------------||
|-------------------|-------------------||
|--5----------------|--L----------------||
|-------------------|-------------------||




Duration Legend
---------------
W - whole
H - half
Q - quarter
E - 8th
S - 16th
T - 32nd
X - 64th
. - note dotted
|-n-|  - n-tuplets


Tablature Legend
----------------
L - tied note
x - dead note
g - grace note
(n) - ghost note
> - accentuded note
NH - natural harmonic
AH - artificial harmonic
TH - tapped harmonic
SH - semi harmonic
PH - pitch harmonic
h - hammer on
p - pull off
b - bend
br - bendRelease
pb - preBend
pbr - preBendRelease
brb - bendReleaseBend
\n/ - tremolo bar dip
\n - tremolo bar dive
-/n - tremolo bar Release up
/n\ - tremolo bar inverted dip
/n - tremolo bar return
-\n - tremolo bar Release down
S - shift slide
s - legato slide
/ -  slide into from below or out of upwards
\ -  slide into from above or out of downwards
~ - vibrato
W - wide vibrato
tr - trill
TP - tremolo picking
T - tapping
S - slap
P - pop
< - fade in
^ - brush up
v - brush down

            
            
Suggest correction
Creating personal tab
Creating personal tab
You can edit any tab online and save it as your Personal.

You can edit, replace or remove any tab part or add personal notes – all changes will be seen only by you.

Personal tabs can be accessed anytime from any device, even offline.
Learn more »
Give kudos to tab author, rate the tab!
1 2 3 4 5
comments
print report bad tab
guest
You may want to rate the tab now too:
select rating
Wanna post a correction for this tab? Suggest correction