Oops, an error
Loading. Please wait.

Forever Ends Today bass

version 1
version 1

Whole song

Interactive

337 views 1 this week
1 commentread comment
1 2 3 4 5
2 more votes to show rating
add to favorites
×
Save as Personal and add changes to this tab that will be seen only by you. Learn more ›
×
You can save this tab as Personal to edit and correct it or add notes. All changes will be seen only by you. Learn more »
launch autoscroll
font size
0
reset
guitar tuner
edit
Autoscroll
slow
fast
+/-
esc
set tempo
stop
Tabbed by: Chris Dimitriadis
Email: ffuthermuckerr@aol.com
Artist: Through The Eyes Of The Dead
Song: Forever Ends Today
Album: Scars Of Ages EP

Drop c

h = hammer on
p = pull off
. = palm mute
s = slide
~ = let it ring

Intro (0:00-0:05)
|-------------------------------------------------------------------|
|-------------------------------------------------------------------|
|------5---5h8-7~--------5---5h7-3~---------------------------------|
|00000---0---------00000---0----------------------------------------|
 .....   .         .....   .

 (0:06-0:13)                                    (0:14)
|----------------------------------------|--------------------------|
|----------------------------------------|--------------------------|
|------5---5h8-7~--------5---5h7-3~------|--------------------------|
|00000---0---------00000---0-------------|00000---------------------|
 .....   .         .....   .              .....

Pause for a sec

Riff 1
|-------------------------------------------------------------------|
|-------------------------------------------------------------------|
|------5---5h8-7~--------5---5h7-3~---------------------------------|
|00000---0---------00000---0----------------------------------------|
 .....   .         .....   .

Riff 2 (0:27-0:43)
Play this with the first guitar
|-------------------------------------------------------------------|
|-------------------------------------------------------------------|
|--8-7-10-8-12-10-8----710875----7121087----------------------------|
|00-0-0--0-0--0--0--078-------078-----------------------------------|
 .. . .  . .  .  .

Riff 3
you can play this with guitar two, but mind you you have to go from this to riff 2 and 
them
|-------------------------------------------------------------------|
|-------------------------------------------------------------------|
|--12-10-13-12-15-13-12----710875----7121087------------------------|
|00--0--0--0--0--0--0---078-------078-------------------------------|

End with
|------------------|
|------------------|
|------------------|
|00-000------------|
 .. ...

“FOREVER!”

Breakdown 1 (0:47-1:01)
|---------------------------------------------|
|---------------------------------------------|
|---------------------------------------------|
|000000000-000000000--------------------------|
 ......... .........

Riff 4
|-------------------------------------------------------------------|
|-------------------------------------------------------------------|
|5--5--5--5h7h8--8--8--8--10p8p7--4--4--4--4h5h7-8--8--12108-1087---|
|-00-00-00--------00-00-00---------00-00-00-------00-00-------------|
  .. .. ..        .. .. ..         .. .. ..       .. ..

Riff 5 (1:15-1:22)
|-------------------------------------------------|
|-------------------------------------------------|
|5~--1~--3~--0~-----------------------------------|
|-------------------------------------------------|

Riff 6 (1:23-1:36)
|-------------------------------------------------------------|
|-------------------------------------------------------------|
|5-555-5-555-5-555-5-555--1-111-1-111-3-333-0-000-------------|
|-------------------------------------------------------------|
   ...   ...   ...   ...    ...   ...   ...   ...

Pre-Breakdown 2 (1:37-1:43)
Let the guitar play only it until the last three
|---------------------------------------|
|---------------------------------------|
|---------------------------------------|
|000-0000-000-0000-000------------------|
 ... .... ... .... ...

“SMELLS LIKE SOMEONE DIED"

Breakdown 2 (1:45-1:57)
|---------------------------------------|
|---------------------------------------|
|---------------------------------------|
|000-0000-000-0000-000------------------|
 ... .... ... .... ...

Riff 7 (1:58-2:02)
|---------------------------------------|
|---------------------------------------|
|---------------------------------------|
|0~-------------------------------------|
or
|------------------------------------------------------------|
|------------------------------------------------------------|
|---8-7h8p7----8--7h8p7----8-7h8p7----8-7h8p7----------------|
|0-0-0------8-8-8-------5-5-5------7-7-7---------------------|
   . .        . .         . .        . .

Riff 8 (2:03-2:06)
|------------------------------------------------------------|
|------------------------------------------------------------|
|---8-7h8p7----8--7h8p7----8-7h8p7----8-7h8p7----------------|
|0-0-0------8-8-8-------5-5-5------7-7-7---------------------|
   . .        . .         . .        . .

Riff 9 (2:08-2:25)
|------------------------------------------------------------|
|------------------------------------------------------------|
|---8-7h8p7----8--7h8p7----8-7h8p7----8-7h8p7----------------|   x2
|0-0-0------8-8-8-------5-5-5------7-7-7---------------------|
   . .        . .         . .        . .

|------------------------------------------------------------|
|---7-5h7p5----7-5h7p5----7-5h7p5-----7-5h7p5----------------|
|------------------------------------------------------------|
|0-0-0------8-8-8------5-5-5-------7-7-7---------------------|
   . .        . .        . .         . .

Breakdown 3 (2:27-end of song)
|---------------------------------------------|
|---------------------------------------12----|
|----------10h12p10-8-10------------8s10------|
|000-00-00---------------000-00-00------------|
 ... .. ..               ... .. ..


for the break downs, find the beat and play with it

            
            
Suggest correction
Creating personal tab
Creating personal tab
You can edit any tab online and save it as your Personal.

You can edit, replace or remove any tab part or add personal notes – all changes will be seen only by you.

Personal tabs can be accessed anytime from any device, even offline.
Learn more »
Give kudos to tab author, rate the tab!
1 2 3 4 5
comments
print report bad tab
1 comment total.
0 reply
prizefighter211 10 Mar 06, 2009 06:15 PM

Excellent tab

guest
You may want to rate the tab now too:
select rating
Wanna post a correction for this tab? Suggest correction