Oops, an error
Loading. Please wait.

Forever Ends Today tab

version 1
version 1

Whole song

Interactive

1,062 views 3 this week
no commentswrite comment
1 2 3 4 5
2 more votes to show rating
add to favorites
×
Save as Personal and add changes to this tab that will be seen only by you. Learn more ›
×
You can save this tab as Personal to edit and correct it or add notes. All changes will be seen only by you. Learn more »
launch autoscroll
font size
0
reset
how to read this tab
guitar tuner
edit
Autoscroll
slow
fast
+/-
esc
set tempo
stop
-------------------------------------------------------------------------------     
FOREVER ENDS TODAY - Through the eyes of the dead
-------------------------------------------------------------------------------
Tabbed by: Jon Kunz 
Email: theredchordx@yahoo.com

www.throughtheeyesofthedead.com (TTEOTD's site)

Tuning: Drop C

~the breakdown rythms are not shown properly, as is every other tab..listen to
the song for the pattern, and some of the timing is not right...but it's all here
(except solo..read below the tab)

Intro (0:00-0:05) 
Guitar I
|-------------------------------------------------------------------|
|-------------------------------------------------------------------|
|-------------------------------------------------------------------|
|00000-------------00000---0----------------------------------------|
|00000-5---5h8-7~--00000-5-0-5h7-3~---------------------------------|
|00000---0---------00000---0----------------------------------------|
 .....   .         .....   .

Guitar II
|-------------------------------------------------------------------|
|-------------------------------------------------------------------|
|-------------------------------------------------------------------|
|00000---0---------00000---0----------------------------------------|
|00000---0---------00000---0----------------------------------------|
|00000---0---------00000---0----------------------------------------|
 .....   .         .....   .

Riff 1 Guitar I & Guitar II (0:06-0:13)      END WITH THIS (0:14)
|----------------------------------------|--------------------------|
|----------------------------------------|--------------------------|
|----------------------------------------|--------------------------|
|00000-------------00000---0-------------|00000---------------------|
|00000-5---5h8-7~--00000-5-0-5h7-3~------|00000---------------------|
|00000---0---------00000---0-------------|00000---------------------|
 .....   .         .....   .              .....

Pause.....
Riff 2
Guitar I
|-------------------------------------------------------------------|
|-------------------------------------------------------------------|
|-------------------------------------------------------------------|
|00000-------------00000---0----------------------------------------|
|00000-5---5h8-7~--00000-5-0-5h7-3~---------------------------------|
|00000---0---------00000---0----------------------------------------|
 .....   .         .....   .

Guitar II
|-------------------------------------------------------------------|
|-------------------------------------------------------------------|
|-------------------------------------------------------------------|
|00000--------------00000-------------------------------------------|
|00000-8--8h12-10~--00000-8---8h10-7~-------------------------------|
|00000---0----------00000---0---------------------------------------|
 .....   .          .....   .

Riff 3 (0:27-0:43)  
Guitar I.....plays this the whole time
|-------------------------------------------------------------------|
|-------------------------------------------------------------------|
|-------------------------------------------------------------------|
|-------------------------------------------------------------------|  
|--8-7-10-8-12-10-8----710875----7121087----------------------------|
|00-0-0--0-0--0--0--078-------078-----------------------------------|
 .. . .  . .  .  .  

Guitar II..play guitar I part once, then guitar II, then I, then II
|-------------------------------------------------------------------|
|-------------------------------------------------------------------|
|-------------------------------------------------------------------|
|-------------------------------------------------------------------|
|--12-10-13-12-15-13-12----710875----7121087------------------------|
|00--0--0--0--0--0--0---078-------078-------------------------------|

Both Guitars end with..
|------------------|
|------------------|
|------------------|
|00-000------------|
|00-000------------|
|00-000------------|
 .. ...

Pause......"FOREVER"

Breakdown 1 (0:47-1:01)
|---------------------------------------------|
|---------------------------------------------|
|---------------------------------------------|
|000000000-000000000--------------------------|
|000000000-000000000--------------------------|
|000000000-000000000--------------------------|
 ......... .........
Riff 4
Guitar I & Guitar II
|-------------------------------------------------------------------|
|-------------------------------------------------------------------|
|-------------------------------------------------------------------|
|-------------------------------------------------------------------|
|5--5--5--5h7h8--8--8--8--10p8p7--4--4--4--4h5h7-8--8--12108-1087---|
|-00-00-00--------00-00-00---------00-00-00-------00-00-------------|
  .. .. ..        .. .. ..         .. .. ..       .. ..

Riff 5 (1:15-1:22)
Guitar I & Guitar II
|-------------------------------------------------|
|-------------------------------------------------|
|7~--3~--5~--2~-----------------------------------|
|7~--3~--5~--2~-----------------------------------|
|5~--1~--3~--0~-----------------------------------|
|-------------------------------------------------|

Riff 6 (1:23-1:36)
Guitar I & Guitar II
|-------------------------------------------------------------|
|-------------------------------------------------------------|
|7-777-7-777-7-777-7-777--3-333-3-333-5-555-2-222-------------|
|7-777-7-777-7-777-7-777--3-333-3-333-5-555-2-222-------------|
|5-555-5-555-5-555-5-555--1-111-1-111-3-333-0-000-------------|
|-------------------------------------------------------------|
   ...   ...   ...   ...    ...   ...   ...   ...

Pre-Breakdown 2 (1:37-1:43)
Guitar I only...until last 3 strums
|---------------------------------------|
|---------------------------------------|
|---------------------------------------|
|000-0000-000-0000-000------------------|
|000-0000-000-0000-000------------------|
|000-0000-000-0000-000------------------|
 ... .... ... .... ...

Pause..."SMELLS LIKE SOMEONE DIED"

Breakdown 2 (1:45-1:57)
Guitar I & Guitar II
|---------------------------------------|
|---------------------------------------|
|---------------------------------------|
|000-0000-000-0000-000------------------|
|000-0000-000-0000-000------------------|
|000-0000-000-0000-000------------------|
 ... .... ... .... ...

Riff 7 (1:58-2:02)
Guitar I
|---------------------------------------|
|---------------------------------------|
|---------------------------------------|
|0~-------------------------------------|
|0~-------------------------------------|
|0~-------------------------------------|

Guitar II
|------------------------------------------------------------|
|------------------------------------------------------------|
|------------------------------------------------------------|
|------------------------------------------------------------|
|---8-7h8p7----8--7h8p7----8-7h8p7----8-7h8p7----------------|
|0-0-0------8-8-8-------5-5-5------7-7-7---------------------|
   . .        . .         . .        . .

Riff 8 (2:03-2:06)
Guitar I & Guitar II
|------------------------------------------------------------|
|------------------------------------------------------------|
|------------------------------------------------------------|
|------------------------------------------------------------|
|---8-7h8p7----8--7h8p7----8-7h8p7----8-7h8p7----------------|
|0-0-0------8-8-8-------5-5-5------7-7-7---------------------|
   . .        . .         . .        . .

Riff 9 (2:08-2:25)
Guitar I....plays this the whole time
|------------------------------------------------------------|
|------------------------------------------------------------|
|------------------------------------------------------------|
|------------------------------------------------------------|
|---8-7h8p7----8--7h8p7----8-7h8p7----8-7h8p7----------------|
|0-0-0------8-8-8-------5-5-5------7-7-7---------------------|
   . .        . .         . .        . .

Guitar II...plays Guitar I part 2x, then the part below
|------------------------------------------------------------|
|------------------------------------------------------------|
|------------------------------------------------------------|
|---7-5h7p5----7-5h7p5----7-5h7p5-----7-5h7p5----------------|
|------------------------------------------------------------|
|0-0-0------8-8-8------5-5-5-------7-7-7---------------------|
   . .        . .        . .         . .

Breakdown 3 (2:27-end of song)
Guitars I & II
|---------------------------------------------|
|---------------------------------------------|
|---------------------------------------------|
|000-00-00---------------000-00-00------12*---|
|000-00-00-10h12p10-8-10-000-00-00--8s10------|
|000-00-00---------------000-00-00------------|
 ... .. ..               ... .. ..



There it is, the first TTEOTD tab on Ultimate Guitar. I'm
figuring out the solo. I know it pretty much uses this scale.

|------------------------------------13-15-17-|
|---------------------------13-15-17----------|
|------------------14-15-17-------------------|
|---------14-15-17----------------------------|
|13-15-17-------------------------------------|
|---------------------------------------------|

So if anyone figures it out or whatever, i'll update this and
include it an give you complete credit and all. 






| /  slide up
| \  slide down
| h  hammer-on
| p  pull-off
| ~  vibrato or hold note
| *  harmonic
| 
===============================================================================

            
            
Suggest correction
Creating personal tab
Creating personal tab
You can edit any tab online and save it as your Personal.

You can edit, replace or remove any tab part or add personal notes – all changes will be seen only by you.

Personal tabs can be accessed anytime from any device, even offline.
Learn more »
Give kudos to tab author, rate the tab!
1 2 3 4 5
comments
print report bad tab
guest
You may want to rate the tab now too:
select rating
Wanna post a correction for this tab? Suggest correction