Oops, an error
Loading. Please wait.

Burn tab

version 1
version 1

Whole song

Interactive

5,526 views 1 this week
7 commentsread comments
1 2 3 4 5
x 10
add to favorites
×
Save as Personal and add changes to this tab that will be seen only by you. Learn more ›
×
You can save this tab as Personal to edit and correct it or add notes. All changes will be seen only by you. Learn more »
launch autoscroll
font size
0
reset
how to read this tab
guitar tuner
edit
Autoscroll
slow
fast
+/-
esc
set tempo
stop
Band  - Throwdown
Song - Burn

Tuning - CGCFAD

Intro:

D|-------------------------|
A|-------------------------|
F|-------------------------|
C|-------------------------| x 4 then play..
G|-------------------------|
C|-0000000000000-66-55-3p0-|

D|------------|
A|------------|
F|------------|
C|-1-1--------|
G|-1-1--------|
C|-1-1 < pause|


D|-------------------------|
A|-------------------------|
F|-------------------------|
C|-0000000000000-66-55-----| x 4 then play.........
G|-0000000000000-66-55-----|
C|-0000000000000-66-55-3p0-|

D|-----------|
A|-----------|
F|-----------|
C|-----------|
G|-001-0011--|
C|-001-0011--|
   ..  ..

verse;

D|-----------------------------------------|
A|-----------------------------------------|
F|-----------------------------------------|
C|-0000-0000-0000-0000-0000-0000-0---------| x 4
G|-0000-0000-0000-0000-0000-0000-0---------|
C|-0000-0000-0000-0000-0000-0000-0-35p3----|
   ..   ..   ..   ..   ..   ..   

Pre Chorus:

D|----------------------------------------|
A|----------------------------------------|
F|----------------------------------------|
C|-----00-----00-----00-----00-----00-----| x 3
G|-----00-----00-----00-----00-----00-----|
C|-1p0-00-2p0-00-1p0-00-2p0-00-1p0-00-2p0-|

Chorus:


D|-------------------------|
A|-------------------------|
F|-------------------------|
C|-0000000000000-66-55-----| x 3 ( 3rd time when double Bass Comes In)
G|-0000000000000-66-55-----|
C|-0000000000000-66-55-3p0-|

D|------------------|
A|------------------|
F|------------------|
C|------------------|
G|-001-0011-0000011-|
C|-001-0011-0000011-|
   ..  ..   .....

D|-------------------------|
A|-------------------------|
F|-------------------------|
C|-0000000000000-66-55-----| x 3 ( 3rd time when double Bass Comes In)
G|-0000000000000-66-55-----|
C|-0000000000000-66-55-3p0-|

D|------------------|
A|------------------|
F|------------------|
C|------------------|
G|-001-0011-0000011-|
C|-001-0011-0000011-|
   ..  ..   .....

verse;

D|-----------------------------------------|
A|-----------------------------------------|
F|-----------------------------------------|
C|-0000-0000-0000-0000-0000-0000-0---------| x 4
G|-0000-0000-0000-0000-0000-0000-0---------|
C|-0000-0000-0000-0000-0000-0000-0-35p3----|
   ..   ..   ..   ..   ..   ..   

Pre Chorus:

D|----------------------------------------|
A|----------------------------------------|
F|----------------------------------------|
C|-----00-----00-----00-----00-----00-----| x 3
G|-----00-----00-----00-----00-----00-----|
C|-1p0-00-2p0-00-1p0-00-2p0-00-1p0-00-2p0-|


Chorus:


D|-------------------------|
A|-------------------------|
F|-------------------------|
C|-0000000000000-66-55-----| x 3 ( 3rd time when double Bass Comes In)
G|-0000000000000-66-55-----|
C|-0000000000000-66-55-3p0-|

D|------------------|
A|------------------|
F|------------------|
C|------------------|
G|-001-0011-0000011-|
C|-001-0011-0000011-|
   ..  ..   .....

D|-------------------------|
A|-------------------------|
F|-------------------------|
C|-0000000000000-66-55-----| x 3 ( 3rd time when double Bass Comes In)
G|-0000000000000-66-55-----|
C|-0000000000000-66-55-3p0-|

D|------------------|
A|------------------|
F|------------------|
C|------------------|
G|-001-0011-0000011-|
C|-001-0011-0000011-|
   ..  ..   .....

Breakdown

D|----------------------------------------|
A|----------------------------------------|
F|----------------------------------------|
C|-000-1-00-2-000-1-00-2-000-1-00-1-00-1--| x 3
G|-000-1-00-2-000-1-00-2-000-1-00-1-00-1--|
C|-000-1-00-2-000-1-00-2-000-1-00-1-00-1--|
   ...   ..   ...   ..   ...   ..   .. 

Outro Chorus:



D|-------------------------|
A|-------------------------|
F|-------------------------|
C|-0000000000000-66-55-----| x 3 ( 3rd time when double Bass Comes In)
G|-0000000000000-66-55-----|
C|-0000000000000-66-55-3p0-|

D|------------------|
A|------------------|
F|------------------|
C|------------------|
G|-001-0011-0000011-|
C|-001-0011-0000011-|
   ..  ..   .....

D|-------------------------|
A|-------------------------|
F|-------------------------|
C|-0000000000000-66-55-----| x 3 ( 3rd time when double Bass Comes In)
G|-0000000000000-66-55-----|
C|-0000000000000-66-55-3p0-|

D|------------------|
A|------------------|
F|------------------|
C|------------------|
G|-001-0011-0000011-|
C|-001-0011-0000011-|
   ..  ..   .....

Any Comments And Questions Please Email me. Please Rate











            
            
Suggest correction
Creating personal tab
Creating personal tab
You can edit any tab online and save it as your Personal.

You can edit, replace or remove any tab part or add personal notes – all changes will be seen only by you.

Personal tabs can be accessed anytime from any device, even offline.
Learn more »
comments
print report bad tab
7 comments total. Showing first comments.
0 reply
ibanezeric82 103 Mar 28, 2006 10:45 AM

This band tunes in Drop B.

0 reply
Superbeast110 10 Oct 08, 2006 04:52 PM

this song kicks ***. good tab.

+1 reply
blacksg 113 Nov 19, 2006 03:03 PM

goog tab but the tuning is dropped B

guest
You may want to rate the tab now too:
select rating
Wanna post a correction for this tab? Suggest correction