Oops, an error
Loading. Please wait.

Cowbirds chords

117 views 1 this week
no commentswrite comment
1 2 3 4 5
1 last vote to show rating
add to favorites
×
Save as Personal and add changes to this tab that will be seen only by you. Learn more ›
×
You can save this tab as Personal to edit and correct it or add notes. All changes will be seen only by you. Learn more »
launch autoscroll
font size
0
reset
transpose
0
reset
display chords
guitar tuner
edit
Autoscroll
slow
fast
+/-
esc
set tempo
stop
Author
Strumming
There is no strumming pattern for this song yet. and get +5 IQ
COWBIRDS

album version - LIMBO
____________________________________
____________________________________

____________________________________
____________________________________
intro:   
e--------------
b--------------
g--------------
d--------------
a--------------
e-1/2-3/4------


fig.1a:   
e-----------------------------------
b-----------------------------------
g-----------------------------------
d---7/5---5/3---3---2/--------------
a-7-----5-----3---3-----------------
e-5-----3-----1--------4------------

fig.1b:  
e-----------------------------------
b-----------------------------------
g---------------2---1---------------
d---7/5---5/3---3---2/--------------
a-7-----5-----3---3-----------------
e-5-----3-----1--------4------------

fig.1c: 
e-----------------------------------
b-----------------------------------
g---------4-----2-------------------
d---7/5-----3---3---2/--------------
a-7-----5-----3---3-----------------
e-5-----3-----1--------4------------

fig.1d:  
e-----------------------------------
b-----------------------------------
g---6-----4-----2---1---------------
d---7/5---5/----3---2---------------
a-7-----5-----3---3----6------------
e-5-----3-----1--------4------------

fig.1e:  
e-----------------------------------
b----------------------4------------
g---6-----4-----2------5------------
d---7/5---5/----3---2/-6------------
a-7-----5-----3---3-----------------
e-5-----3-----1---------------------


chords:
     C       A#      G       F       A   
e---10--- ---6--- ---3--- ---1--- ---5----
b---10--- ---6--- ---3--- ---1--- ---5----
g----9--- ---7--- ---4--- ---2--- ---6----
d---10--- ---8--- ---5--- ---3--- ---7----
a---10--- ---8--- ---5--- ---3--- ---7----
e----8--- ---6--- ---3--- ---1--- ---5----
___________________________________________

intro

fig.1a
Pack the truck under the moon
fig.1a
Jesus Christ, my lips are red
fig.1b
You ask a lot of the moon
fig.1c
When you ask me to forget
fig.1d
I never asked you to pay my rent
fig.1d
Jesus Christ, my lips are red
fig.1e
God, you turn me on my head
             F             G
You're gonna haul me back again
___________________________________________

C A# G F C A# G A#


C A#    G  F     C    A# G  A#
I heard cowbirds call us    home
C A#    G  F     C    A# G  A#
I heard cowbirds call us    home
G         A#     C        A#
Fry your ground, take it
G      A#   C
Lie around naked
  A#    G               A#       C        A#
I think god dripped you out of a sunbeam, only
G               A#       C             A#
God dragged you out of a tree, with me
G            A#       C
I pulled you out of a snowbank,
  A#         G      A#         C
I think you grew me out of the dirt
  A#    G             A#       C
I heard you pulled me out of a church
   A#      C  A# G F C A# G A#
To worship you
        C  A# G F C A# G A#
Worship you
G       A#   C       A#
I wanna riot inside
G       A#   C       A#
I wanna riot inside
G      A#           C            A#
I hold both of your fingers tighter
G        A#        C         A#
You hold all of my hand, man
G     A#        C           A#
I can see right through you
G     A#        C
I can see right through you
  A#     G        A#            C
I double back and lose for this  
  A#   C   A# G F C A# G A#
I miss you  
       C   A# G F C A# G A#
I miss you
C A#    G  F     C    A# G A#
I heard cowbirds call us   home
___________________________________________
intro

fig.1a
He don't seem so keen
fig.1a
He don't seem so keen to me
fig.1a
He don't seem so keen
fig.1a
He don't seem that keen on me
fig.1d
I never asked him to pay my rent
fig.1d
Jesus Christ, that rose is red
fig.1e
I'm turning it on its head
          F          G
Just like he does to me 
A           G    F          G
You suck me dry, I'll never die
A           G    F          G
You suck me dry, I'll never die
A           G    F          G
You suck me dry, I'll never die
A           G                F          G
Me and your rose're gonna haul you back again

            
            
Suggest correction
Creating personal tab
Creating personal tab
You can edit any tab online and save it as your Personal.

You can edit, replace or remove any tab part or add personal notes – all changes will be seen only by you.

Personal tabs can be accessed anytime from any device, even offline.
Learn more »
Give kudos to tab author, rate the tab!
1 2 3 4 5
comments
print report bad tab
guest
You may want to rate the tab now too:
select rating
Wanna post a correction for this tab? Suggest correction