Oops, an error
Loading. Please wait.

Ruthies Knocking tab

137 views 3 this week
no commentswrite comment
1 2 3 4 5
1 last vote to show rating
add to favorites
×
Save as Personal and add changes to this tab that will be seen only by you. Learn more ›
×
You can save this tab as Personal to edit and correct it or add notes. All changes will be seen only by you. Learn more »
launch autoscroll
font size
0
reset
how to read this tab
guitar tuner
edit
Autoscroll
slow
fast
+/-
esc
set tempo
stop
Author
RUTHIE'S KNOCKING

album version - LIMBO
____________________________________
____________________________________

____________________________________
____________________________________
fig.1:
e------------------------------------
b------------------------------------
g------------------------------------
d------------------------------------
a-----7-------7-------3-------5------
e-8-8---8-7-7---7-1-1---1-3-3---3----

chords:
    A       C        G       F
e---5--- ---8---- ---3--- ---1---
b---5--- ---8---- ---3--- ---1---
g---6--- ---9---- ---4--- ---2---
d---7--- ---10--- ---5--- ---3---
a---7--- ---10--- ---5--- ---3---
e---5--- ---8---- ---3--- ---1---
________________________________________

fig.1 (x2)


Ruthie's knocking, oh my god

Who's she talking to?

Not a clue
                                     A
Now she's shouting, I'll be on the floor
F      G       A
You go get the door
C                G        A
Just had to make sure you knew
         C      G       A
That's a jack-o-lantern moon
C          G      A          C          G       A
Don't look in the mirror, or he'll look back at you
C       G      A
Ruthie, take a shower
C       G      A
I smell like a flower
     C          G           A
Your cats smell better than you do
    C         G     A
Her cats are pretty cool

fig.1 (x2)

Where's he now?

He's on the floor

She flips off the window and spits at the door
                             A
My advice is twice what he's worth
    F       G       A
The moon'll get him first
C    G  A
Mark my words
    C        G          A
The medicine chests are backwards
C     G   A
Don't be surprised
   C        G       A        C   G  A
If you have flaming eyes tonight
  C     G  A
Tonight
        C     G  A
Yeah, tonight
         C    G   A
Ruthie's eyes are bright
_____________________________________________

fig.2a
e-------------------------------------
b--8--8-0---3-3-0---1-1-0-0--3-3-3/6--
g--9--9-0---4-4-0---2-2-0-0--4-4-4/7--
d-10-10-----5-5-----3-3------5-5-5/8--
a-------------------------------------
e-------------------------------------

fig.2b
e-------------------------------------
b--8--8-0---3-3-0---1-1-0-0--3-3-3-3--
g--9--9-0---4-4-0---2-2-0-0--4-4-4-4--
d-10-10-----5-5-----3-3------5-5-5-5--
a-------------------------------------
e-------------------------------------

fig.2c
e--------------------------------------
b--8--8-0-0--3-3-0---1-1-0-0--3-3-3/6--
g--9--9-0-0--4-4-0---2-2-0-0--4-4-4/7--
d-10-10------5-5-----3-3------5-5-5/8--
a--------------------------------------
e--------------------------------------

fig.2d
e--------------------------------------
b--8--8-0---3-3-0-0---1-1-1/--3-3-3/5--
g--9--9-0---4-4-0-0---2-2-2/--4-4-4/6--
d-10-10-----5-5-------3-3-3/--5-5-5/7--
a--------------------------------------
e--------------------------------------

fig.2a
Ruthie's spine is taped with feathers
fig.2b
They're all mine, they grew
                 A   fig.2c
So you see them too
fig.2d                           A
Ruthie, yeah, your brain, she's fried
F          G      A
You should see my mind
_______________________________________________________

guitar lead:
e-----------------------------------------------------------------------------
b-8--8-8-8--8-8-8/5-5-/8--8-8-8--8-8-8/5-5------------------------------------
g-------------------------------------------2/5-5---2/9-9---5/2/5--5/2/5-4-2--
d-----------------------------------------------------------------------------
a-----------------------------------------------------------------------------
e-----------------------------------------------------------------------------
______________________________________________________

additional chords:
    E       F#
e---0--- ---2---
b---0--- ---2---
g---1--- ---3---
d---2--- ---4---
a---2--- ---4---
e---0--- ---2---

E
  Dance around (Ruthie's knocking)
G
  Play around
A
  Fool around
E
  Walk around
G
  Run around (Ruthie's knocking)
A
  Jump around
E
  Fool around
G
  Feel around (Ruthie's knocking)

A
E G F#
E G A
E G A
E

            
            
Suggest correction
Creating personal tab
Creating personal tab
You can edit any tab online and save it as your Personal.

You can edit, replace or remove any tab part or add personal notes – all changes will be seen only by you.

Personal tabs can be accessed anytime from any device, even offline.
Learn more »
Give kudos to tab author, rate the tab!
1 2 3 4 5
comments
print report bad tab
guest
You may want to rate the tab now too:
select rating
Wanna post a correction for this tab? Suggest correction