Oops, an error
Loading. Please wait.

In A Broken Dream bass

by Thunder
1,161 views 3 this week
1 commentread comment
1 2 3 4 5
3 more votes to show rating
add to favorites
×
Save as Personal and add changes to this tab that will be seen only by you. Learn more ›
×
You can save this tab as Personal to edit and correct it or add notes. All changes will be seen only by you. Learn more »
launch autoscroll
font size
0
reset
guitar tuner
edit
Autoscroll
slow
fast
+/-
esc
set tempo
stop
Difficulty
intermediate
                               IN A BROKEN DREAM
                             As recorded by Thunder
               (From the 1995 Album THEIR FINEST HOUR (AND A BIT))

 Intro
  H.      Q    W          W          H    +E   E E E
|------------|----------|----------|-------------8----|
|------------|----------|----------|----------/8---8--|
|------------|----------|----------|-6----(6)---------|
|-3-------3--|-1--------|-0--------|------------------|


  Q..   S e Q  E   H    Q  Q    Q..   S e E E E   E  H..
|----------------|------------|-----------------|-----------||
|----------------|------------|-----------------|-----------||
|----------------|------------|-------------3-4-|-5\--------||
|-3-----1-3-3--3-|-1----3--5--|-6-----5-6-6-----|-----------||


 Verse 0:26
  H    H      Q..   S e Q  S S   H    H      Q.   S S Q..   S
|-----------|------------------|-----------|------------------|
|-----------|------------------|-----------|------------------|
|-----------|---------6-6------|-----------|-1----3-4-5-----3-|
|-3----1----|-0-----0------1-2-|-3----1----|------------------|


  e Q  S S H      H    H      Q..   S e Q  E   H    H
|---------------|-----------|----------------|-----------|
|---------------|-----------|----------------|-----------|
|-5-5--3-4-5----|-----------|---------6-6----|-----------|
|---------------|-3----1----|-0-----0------1-|-3----1----|


                                     2/4
  Q.   E Q..   S   e Q  S S Q.    E   E E E E
|----------------|------------------|-7---7---||
|----------------|---------------/7-|---7---7-||
|-1----3-5-----3-|-5-5--3-4-5-------|---------||
|----------------|------------------|---------||


 Chorus 0:59
 4/4
  Q..   S  e E E E   H    +E  E E E   Q..   S e Q  S S   Q..   S Q  Q
|------------------|----------------|------------------|---------------|
|------------5-----|----------------|------------------|---------------|
|---------/5---5---|----------------|---------7-7--4-5-|-6-----4-6--8--|
|-3-----3--------3-|-1----(1)-1-3-1-|-0-----0----------|---------------|


  Q..   S  e E E E   H    Q  Q    Q..   S e E E E   E  H..
|------------------|------------|-----------------|-----------||
|------------5-----|------------|-----------------|-----------||
|---------/5---5---|------------|-------------3-4-|-5\--------||
|-3-----3--------3-|-1----3--5--|-6-----5-6-6-----|-----------||


 Verse 1:24
  H    H      Q..   S e Q  S S   H    H      Q.   S S Q..   S
|-----------|------------------|-----------|------------------|
|-----------|------------------|-----------|------------------|
|-----------|---------6-6------|-----------|-1----3-4-5-----3-|
|-3----1----|-0-----0------1-2-|-3----1----|------------------|


  e Q  S S H      H    H      Q..   S e Q  E   H    H
|---------------|-----------|----------------|-----------|
|---------------|-----------|----------------|-----------|
|-5-5--3-4-5----|-----------|---------6-6----|-----------|
|---------------|-3----1----|-0-----0------1-|-3----1----|


                     2/4
  Q.   S S Q..    S   E E E E
|-------------------|---7---7-||
|----------------/7-|-7---7---||
|-1----3-4-5--------|---------||
|-------------------|---------||


 Chorus 1:53
 4/4
  Q..   S  e e S S E   H    +E  E E E   Q..   S e Q  S S   Q..   S Q  Q
|--------------------|----------------|------------------|----------------|
|------------5-5h7-5-|----------------|------------------|----------------|
|---------/5---------|----------------|---------7-7--4-5-|-6-----4-6--8---|
|-3-----3------------|-1----(1)-1-3-1-|-0-----0----------|----------------|


  Q..   S  e e S S E   H    Q  Q    Q..   S e E E E   E S S E. S S S E S S E
|--------------------|------------|-----------------|------------------------||
|------------5-5h7-5-|------------|-----------------|------------------------||
|---------/5---------|------------|-------------3-4-|-5-5-5-5----------------||
|-3-----3------------|-1----3--5--|-6-----5-6-6-----|----------3-3h5-3-6h8-6-||


 Bridge 2:18
  Q..   S  e E E E   Q..   S Q  Q    Q..   S e Q  S S   Q..   S E E E E
|------------------|---------------|------------------|------------------|
|------------5-----|---------------|------------------|---------8---8----|
|---------/5---5---|---------------|---------7-7--4-5-|-6-----6---6---6--|
|-3-----3--------3-|-1-----0-1--3--|-0-----0----------|------------------|


  Q..   S  e e S S E   H    Q  Q    Q..   S e E E E   E  H..
|--------------------|------------|-----------------|-----------||
|------------5-5h7-5-|------------|-----------------|-----------||
|---------/5---------|------------|-------------3-4-|-5\--------||
|-3-----3------------|-1----3--5--|-6-----5-6-6-----|-----------||


 Guitar Solo 2:43
  H    H      Q..   S e Q  S S   H    H      Q..   S e Q  S S
|-----------|------------------|-----------|------------------|
|-----------|------------------|-----------|------------------|
|-----------|---------6-6------|-----------|---------6-6------|
|-3----1----|-0-----0------1-2-|-3----1----|-0-----0------1-2-|


  H    H      Q.   S S Q.   S S
|-----------|-------------------|
|-----------|-------------------|
|-----------|------4-5-6----7-8-|
|-3----1----|-0-----------------|


  Q..   S e Q  S S   E S S E. S S S S S S S S S
|------------------|-----------------------------||
|------------------|-----------------------------||
|--------------3-4-|-5-5-5-5------1-------1------||
|-6-----5-6-6------|----------1-3---3-1-3---3-1--||


 Verse 3:07
  Q..   S Q..   S   Q..   S e Q  S S   Q..   S Q..   S   Q.   S S Q..   S
|-----------------|------------------|-----------------|------------------|
|-----------------|------------------|-----------------|------------------|
|-----------------|---------6-6------|-----------------|-1----3-4-5-----3-|
|-3-----3-1-----1-|-0-----0------1-2-|-3-----3-1-----1-|------------------|


                     2/4
  e Q   E e S S E E   S S E S S E
|---------7-7-7-7-7-|-----5-7p5---||
|------/7-----------|-5h7-------7-||
|-5-5---------------|-------------||
|-------------------|-------------||


 Out-Chorus 3:25
 4/4
  Q..   S  e E E E   H    +E  E E E   Q..   S e Q  S S   Q..   S Q  Q
|------------------|----------------|------------------|---------------|
|------------5-----|----------------|------------------|---------------|
|---------/5---5---|----------------|---------7-7--4-5-|-6-----4-6--8--|
|-3-----3--------3-|-1----(1)-1-3-1-|-0-----0----------|---------------|


  Q..   S  e e S S E   H    Q  Q
|--------------------|------------|
|------------5-5h7-5-|------------|
|---------/5---------|------------|
|-3-----3------------|-1----3--5--|


  Q..   S e Q  S S   E S S E  E S S S S S S S S
|------------------|------------7-7-7-7-7-7-7-7---|
|------------------|---------/7-------------------|
|--------------3-4-|-5-5-5-5----------------------|
|-6-----5-6-6------|------------------------------|


  Q..   S  e e S S E   Q..   S E E E E
|--------------------|-----------------|
|------------5-5h7-5-|-----------------|
|---------/5---------|-----------------|
|-3-----3------------|-1-----1-1-3-1-3-|


  Q..   S e Q  S S   Q..   S S S E S S E
|------------------|---------------------|
|------------------|---------------------|
|---------7-7--4-5-|-6-----4-6-6-6-8-8-8-|
|-0-----0----------|---------------------|


  Q..   S  e e S S E   H    Q  Q
|--------------------|------------|
|------------5-5h7-5-|------------|
|---------/5---------|------------|
|-3-----3------------|-1----3--5--|


  Q..   S e Q  S S   E S S E S S S S S S S S S S
|------------------|-------------7-7-7-7-7-7-7-7--*|
|------------------|------------------------------*|
|--------------3-4-|-5-5-5-5-5-5------------------*|
|-6-----5-6-6------|------------------------------*|

            
            
Suggest correction
Creating personal tab
Creating personal tab
You can edit any tab online and save it as your Personal.

You can edit, replace or remove any tab part or add personal notes – all changes will be seen only by you.

Personal tabs can be accessed anytime from any device, even offline.
Learn more »
Give kudos to tab author, rate the tab!
1 2 3 4 5
comments
print report bad tab
1 comment total.
0 reply
ddihughes57 10 Mar 28, 2014 03:17 PM

Love this song. Should also try the Python Lee Jackson version with Rod Stewart on vocals. Very Psych pop, but the ultimate soul of the tune rings through.

guest
Wanna post a correction for this tab? Suggest correction