Oops, an error
Loading. Please wait.

Other Side Of The Crash bass

828 views 1 this week
1 commentread comment
1 2 3 4 5
1 last vote to show rating
add to favorites
×
Save as Personal and add changes to this tab that will be seen only by you. Learn more ›
×
You can save this tab as Personal to edit and correct it or add notes. All changes will be seen only by you. Learn more »
launch autoscroll
font size
0
reset
guitar tuner
edit
Autoscroll
slow
fast
+/-
esc
set tempo
stop
  Intro:
G|-------------------------------------------------------|
D|-------------------------------------------------------|
A|-------------6666-6666--3333-3333---------11-11-11-11--|
E|-3333-3333-------------------------4444----------------|

G|--------------------------------------------------------------------------|
D|--------------------------------------------------------------------------|
A|------------6666-6666--3333-3333--11-11-11-11---11-11-11-11---11-11-11-11-|
E|-3333-3333----------------------------------------------------------------|



  Verse: Play 4x
G|------------------------------------------------|
D|------------------------------------------------|
A|--10/12\10-10-10-10--888-10-10--5555-5333-888---|
E|------------------------------------------------|

  Intro

  Verse


  Chorus:  Play 2x
G|---------------------------------------------|
D|---------------------------------------------|
A|----------------------------------6666-6666--|
E|-3333-3333--3333-3333--6666-6666-------------|


  Play: 2x                    
G|------------|--------------------||-----|   
D|------------|--------------------||-----|   
A|------------|------------66-6666-||-----|   
E|-3-3--3333--|--66--6666----------||--3\-|


  Bridge:  Play 4x
G|--------12----15--|--------12----15-14-----||
D|--8/12-----12-----|--8/12-----12-------15--||
A|------------------|------------------------||
E|------------------|------------------------||

  Play: 4x                    
G|----------------------|--------------------||-----|   
D|----------------------|--------------------||-----|   
A|----------------------|------------66-6666-||-----|   
E|-3-3--3333--3-3--3333-|--66--6666----------||--3\-|

G|--------------------|
D|--------------------|
A|--------------------|
E|--3--3--3--3--3--3--|


  Break

  Play: 4x
G|-------------|
D|-----------5-|
A|-6--3--------|
E|-------1/3---|


  Play: 3x
G|--------------------|--------12-10-12------12--------------||
D|-------8/10--10/12--|------------------10------------------||
A|-6666---------------|-10-10--------------------10-10-10-10-||
E|--------------------|--------------------------------------||

G|----------------------------------------------|
D|------8/10--10/12-----------------------------|
A|-6666--------------10-10-10-10---10-10-10-10--|
E|----------------------------------------------|


  Play: 2x
G|----------------|--------------------|---------------|
D|----------------|--------------------|---------------|
A|--6666--666-66--|--5555-55--5555-55--|--6666-666-66--|
E|----------------|--------------------|---------------|

G|----------------------|-----------------------|--------------|-------------------|
D|----------------------|-----------------------|--------------|-------------------|
A|-17-17-17-17---17-17--|--17-17-17-17---17-17--|-6666-666-66--|-5555-55--5555-55--|
E|----------------------|-----------------------|--------------|-------------------|

  

  Play: 4x   Play: 4x        Play: 4x    Play: 4x
G|--------||---------------||----------||----------||
D|--------||---------------||----------||----------||
A|--5555--||--12-12-12-12--||---5555---||---55-66--||
E|--------||---------------||----------||----------||

            
            
Suggest correction
Creating personal tab
Creating personal tab
You can edit any tab online and save it as your Personal.

You can edit, replace or remove any tab part or add personal notes – all changes will be seen only by you.

Personal tabs can be accessed anytime from any device, even offline.
Learn more »
Give kudos to tab author, rate the tab!
1 2 3 4 5
comments
print report bad tab
1 comment total.
0 reply
Kekumba 10 Dec 23, 2006 04:39 AM

It sounds fine to me, and thanks a million, I've been waiting for a tab of this since the album came out!

guest
You may want to rate the tab now too:
select rating
Wanna post a correction for this tab? Suggest correction