Oops, an error
Loading. Please wait.

Turn On tab

version 2
version 2

Whole song

  • This tab is based off the studio recorded version ... Show more
  • Tabbed from a live version (Live on Soundcheck) - ... Show more
139 views 6 this week
1 commentread comment
1 2 3 4 5
3 more votes to show rating
add to favorites
×
Save as Personal and add changes to this tab that will be seen only by you. Learn more ›
×
You can save this tab as Personal to edit and correct it or add notes. All changes will be seen only by you. Learn more »
launch autoscroll
font size
0
reset
how to read this tab
guitar tuner
edit
Autoscroll
slow
fast
+/-
esc
set tempo
stop
About this tab version
Tabbed from a live version (Live on Soundcheck) - A couple differences with the album version but it's mostly the same, just some parts are a little shorter. Was this info helpful? Yes No
Tuning : CGDGCD

This is Thurston part only.
For this whole tab, there are always 8 beats between each |--|
The struming patterns are not shown explicitely, just listen to the record.

[Intro]
(part 1)
D|------------------------------------------|------------------------------------------|
C|-------0----------0----------0----------0-|------------------------------------------|
G|----14---14----14---14----14---14----14---|-------0----------0----------0----------0-|
D|-15---------15---------15---------15------|----13---13----13---13----13---13----13---|
G|------------------------------------------|-12---------12---------12---------12------|
C|------------------------------------------|------------------------------------------|

(part 2)
D|------------------------------------------|------------------------------------------|
C|-------0----------0----------0----------0-|------------------------------------------|
G|----10---10----10---10----10---10----10---|-------0----------0----------0----------0-|
D|-11---------11---------11---------11------|----10---10----10---10----10---10----10---|
G|------------------------------------------|--9----------9----------9----------9------|
C|------------------------------------------|------------------------------------------|

D|------------------------------------------|------------------------------------------|
C|-------0----------0----------0----------0-|------------------------------------------|
G|-----7----7-----7----7-----7----7-----7---|-------0----------0----------0----------0-|
D|--8----------8----------8----------8------|-----6----6-----6----6-----6----6-----6---|
G|------------------------------------------|--5----------5----------5----------5------|
C|------------------------------------------|------------------------------------------|

D|-------------0---------------------0------|
C|-------0--------0------------0--------0---| (play part 2 once, go to part 3,
G|-----4----4--------4-------4----4-------4-| then play part 2 again and the second time
D|--5-------------------5-5-----------------| skip part 3 and go to part 4)
G|------------------------------------------|
C|------------------------------------------|

(part 3) (play once then go back to part 2)
D|------------------------------------------|------------------------------------------|
C|-------0----------0----------0----------0-|-------0----------0----------0----------0-|
G|-----2----2-----2----2-----2----2-----2---|-----0----0-----0----0-----0----0-----0---|
D|--3----------3----------3----------3------|--1----------1----------1----------1------|
G|------------------------------------------|------------------------------------------|
C|------------------------------------------|------------------------------------------|

(part 4) (strum)
these are only the chords, listen to the record to get the struming pattern
D|--0--|--0--|--0--|--0--|--0--|-10--|-13--|-8--|-11--|
C|--0--|--0--|--0--|--0--|--0--|--0--|--0--|-0--|--0--|
G|--9--|-12--|-17--|-19--|-14--|--9--|-12--|-7--|-10--|
D|-10--|-13--|-18--|-20--|-15--|-10--|-13--|-8--|-11--|
G|--0--|--0--|--0--|--0--|--0--|--0--|--0--|-0--|--0--|
C|-----|-----|-----|-----|-----|-----|-----|----|-----|
throw a couple of open C and G from time to time

[Verse]
(part 5)
D|-10-10-10-10-|-8--0--8--0-|-10-10-12-10-|-8--0--8--0-|
C|--0--0--0--0-|-0--0--0--0-|--0--0--0--0-|-0--0--0--0-|
G|--9--9--9--9-|-7--7--7--7-|--9--9--9--9-|-7--7--7--7-|
D|-10-10-10-10-|-8--8--8--8-|-10-10-10-10-|-8--8--8--8-|
G|--0--0--0--0-|-0--0--0--0-|--0--0--0--0-|-0--0--0--0-|
C|-------------|------------|-------------|------------|
(play twice)

[Chorus]
(part 6)
D|-------------|-------------|-------------|---------------|-------------|-------------|
C|-------------|-------------|-------------|---------------|-------------|-------------|
G|-------------|-------------|-------------|---------------|-------------|-------------|
D|--6--6--8--8-|-10-10--8--8-|--6--6--8--8-|-10-10--11--11-|--6--6--8--8-|-10-10--8--8-|
G|--5--5--7--7-|--9--9--7--7-|--5--5--7--7-|--9--9--10--10-|--5--5--7--7-|--9--9--7--7-|
C|--5--5--7--7-|--9--9--7--7-|--5--5--7--7-|--9--9--10--10-|--5--5--7--7-|--9--9--7--7-|

D|----------------|----------------|----------------|----------------|
C|----------------|----------------|----------------|----------------|
G|----------------|----------------|----------------|----------------|
D|--11--11--10-10-|--11--11--10-10-|--11--11--10-10-|--11--11--10-10-|
G|--10--10---9--9-|--10--10---9--9-|--10--10---9--9-|--10--10---9--9-|
C|--10--10---9--9-|--10--10---9--9-|--10--10---9--9-|--10--10---9--9-|

[Interlude]
(part 7)
D|----------------|----------------|
C|----------------|----------------|
G|----------------|----------------|
D|--14------14----|--14------14----|
G|--12------12----|--12------12----|
C|--12------12----|--12------12----|

[Instrumental]
(part 8)
D|--14------15-----|--13------12-----|--12------10-----|--10-------9-----|
C|---x-------x-----|---x-------x-----|---x-------x-----|---x-------x-----|
G|---x-------x-----|---x-------x-----|---x-------x-----|---x-------x-----|
D|--14------15-----|--13------12-----|--12------10-----|--10-------9-----|
G|--12------12-----|--10------10-----|---8-------8-----|---7-------7-----|
C|--12------12-----|--10------10-----|---8-------8-----|---7-------7-----|

D|--14------15-----|--18------17-----|--20------21-----|--21------21-----|
C|---x-------x-----|---0-------0-----|---0-------0-----|---0-------0-----|
G|---x-------x-----|---x-------x-----|---x-------x-----|---x-------x-----|
D|--14------15-----|--18------17-----|--20------21-----|--21------21-----|
G|--12------12-----|---x-------x-----|---0-------0-----|---0-------0-----|
C|--12------12-----|--17------16-----|---0-------0-----|---0-------0-----|

D|--14------15-----|--13------12-----|--12------10-----|--10-------9-----|
C|---x-------x-----|---x-------x-----|---x-------x-----|---x-------x-----|
G|---x-------x-----|---x-------x-----|---x-------x-----|---x-------x-----|
D|--14------15-----|--13------12-----|--12------10-----|--10-------9-----|
G|--12------12-----|--10------10-----|---8-------8-----|---7-------7-----|
C|--12------12-----|--10------10-----|---8-------8-----|---7-------7-----|

(part 9)
D|--x--------------|
C|--x--------------|
G|--x--------------|
D|--x--------------|
G|--5--------------|
C|--0--------------|

(part 10) (variation of a classic Thurston riff)
D|-----------------------------|-----------------------------|
C|-----------------------------|--------------------12-14-12-|
G|-----------------14-15-14----|-----------------14--0--0--0-|
D|-----------14-15--0--0--0-15-|-----------14-15--0--0--0--0-|
G|--12-13-15--0--0--0--0--0--0-|--12-13-15--0--0--0--0--0--0-|
C|--0---0--0--0--0--0--0--0--0-|--0---0--0--0--0--0--0--0--0-|
(play this twice)

(part 11)
D|--x--------------|
C|--x--------------|
G|--5--------------|
D|--5--------------|
G|--5--------------|
C|--0--------------|

(part 12) 
(harmonics 12th fret)
D|----------------(12)-----------------------------------(12)---------------------|
C|--------------------------(12)-----------------------------------(12)-----------|
G|------(12)-------------------------(12)------(12)-------------------------(12)--|
D|---------------------(12)-----------------------------------(12)----------------|
G|-----------(12)------(12)------(12)---------------(12)------(12)------(12)------|
C|-(12)------(12)-------------------------(12)------(12)--------------------------|
play this 4 times

(part 13) (struming pattern not shown)
D|-5-5-5-5-5-5-5-5-5-5-7-7-7-|
C|-0-0-0-0-0-0-0-0-0-0-0-0-0-|
G|---------------------------|
D|-5-5-5-5-5-5-5-5-5-5-7-7-7-|
G|-0-0-0-0-0-0-0-0-0-0-0-0-0-|
C|-0-0-0-0-0-0-0-0-0-0-0-0-0-|

(play this 4 times)

(part 14) (struming pattern not shown, faster than part 13) (hold each chord for 8 beats)
D|--5--|--10--|--13--|--18--|--20--|--15--|--10--|--13--|--8--|
C|--0--|---0--|---0--|---0--|---0--|---0--|---0--|---0--|--0--|
G|--x--|---x--|---x--|---x--|---x--|---x--|---x--|---x--|--x--|
D|--5--|--10--|--13--|--18--|--20--|--15--|--10--|--13--|--8--|
G|--0--|---0--|---0--|---0--|---0--|---0--|---0--|---0--|--0--|
C|--0--|---0--|---0--|---0--|---0--|---0--|---0--|---0--|--0--|

D|-----------11---------------11---------|-----------11---------------11---------|
C|---------------0---0-------------0---0-|---------------0---0-------------0---0-|
G|---------------------------------------|---------------------------------------|
D|-----11----------------11--------------|-----11----------------11--------------|
G|---0----0----0---0---0----0----0---0---|---0----0----0---0---0----0----0---0---|
C|---0-----------------0-----------------|---0-----------------0-----------------|

(Then back to)
[Verse]
(part 5)
D|-10-10-10-10-|-8--0--8--0-|-10-10-12-10-|-8--0--8--0-|
C|--0--0--0--0-|-0--0--0--0-|--0--0--0--0-|-0--0--0--0-|
G|--9--9--9--9-|-7--7--7--7-|--9--9--9--9-|-7--7--7--7-|
D|-10-10-10-10-|-8--8--8--8-|-10-10-10-10-|-8--8--8--8-|
G|--0--0--0--0-|-0--0--0--0-|--0--0--0--0-|-0--0--0--0-|
C|-------------|------------|-------------|------------|
(play twice)

[Chorus]
(part 6)
D|-------------|-------------|-------------|---------------|-------------|-------------|
C|-------------|-------------|-------------|---------------|-------------|-------------|
G|-------------|-------------|-------------|---------------|-------------|-------------|
D|--6--6--8--8-|-10-10--8--8-|--6--6--8--8-|-10-10--11--11-|--6--6--8--8-|-10-10--8--8-|
G|--5--5--7--7-|--9--9--7--7-|--5--5--7--7-|--9--9--10--10-|--5--5--7--7-|--9--9--7--7-|
C|--5--5--7--7-|--9--9--7--7-|--5--5--7--7-|--9--9--10--10-|--5--5--7--7-|--9--9--7--7-|

D|----------------|----------------|----------------|----------------|
C|----------------|----------------|----------------|----------------|
G|----------------|----------------|----------------|----------------|
D|--11--11--10-10-|--11--11--10-10-|--11--11--10-10-|--11--11--10-10-|
G|--10--10---9--9-|--10--10---9--9-|--10--10---9--9-|--10--10---9--9-|
C|--10--10---9--9-|--10--10---9--9-|--10--10---9--9-|--10--10---9--9-|

[Outro]
(just play the last part of the chorus several times until the end on open chords)
D|----------------|----------------|----------------|----------------|-0--------------|
C|----------------|----------------|----------------|----------------|-0--------------|
G|----------------|----------------|----------------|----------------|-0--------------|
D|--11--11--10-10-|--11--11--10-10-|--11--11--10-10-|--11--11--10-10-|-0--------------|
G|--10--10---9--9-|--10--10---9--9-|--10--10---9--9-|--10--10---9--9-|-0--------------|
C|--10--10---9--9-|--10--10---9--9-|--10--10---9--9-|--10--10---9--9-|-0 -------------|


************************************

| x    Dead note
| (n)  Ghost note

************************************

            
            
Suggest correction
Creating personal tab
Creating personal tab
You can edit any tab online and save it as your Personal.

You can edit, replace or remove any tab part or add personal notes – all changes will be seen only by you.

Personal tabs can be accessed anytime from any device, even offline.
Learn more »
Give kudos to tab author, rate the tab!
1 2 3 4 5
comments
print report bad tab
1 comment total.
0 reply
neutrino312 10 Sep 16, 2017 06:46 PM

Why are there two different tunings for this song on this page??

guest
You may want to rate the tab now too:
select rating
Wanna post a correction for this tab? Suggest correction