Oops, an error
Loading. Please wait.

Immolation tab

version 1
version 1

Whole song

  • This version is based off the Tab Pro version, but... Show more

Interactive

142 views 1 this week
2 commentsread comments
1 2 3 4 5
3 more votes to show rating
add to favorites
×
Save as Personal and add changes to this tab that will be seen only by you. Learn more ›
×
You can save this tab as Personal to edit and correct it or add notes. All changes will be seen only by you. Learn more »
launch autoscroll
font size
0
reset
how to read this tab
guitar tuner
edit
Autoscroll
slow
fast
+/-
esc
set tempo
stop
About this tab version
This version is based off the Tab Pro version, but condenses the tracks for guitars 1 and 2 into one guitar. Was this info helpful? Yes No
[Intro]
(Guitar 1 and 2)                   1st Ending                       1st Ending
e|--------------------------------|--------------------------------|--------------------------------|
B|--------------------------------|--------------------------------|--------------------------------|
G|4-----3-----3-------------------|4-----3-----3-----7-----7-8-7-3-|4-----3-----3-----7-------------|
D|4-----3-----3-------------------|4-----3-----3-----7-----7-8-7-3-|4-----3-----3-----7-------------|
A|2-----1-----1-------------------|2-----1-----1-----5-----5-6-5-1-|2-----1-----1-----5-------------|
E|2-----1-----1-------------------|2-----1-----1-----5-----5-6-5-1-|2-----1-----1-----5-------------|
A|2-----1-----1-------------------|2-----1-----1-----5-----5-6-5-1-|2-----1-----1-----5-------------|

[Hook]
(Guitar 1 and 2)                                    1st Ending
e|----------------|--------------------------------|--------------------------------------|
B|----------------|--------------------------------|--------------------------------------|
G|4-----3-----3---|--------------------------------|4-----3-----3-----3-----7-----7-8-7-3-|
D|4-----3-----3---|--------------------------------|4-----3-----3-----3-----7-----7-8-7-3-|
A|2-----1-----1---|--------------------------------|2-----1-----1-----1-----5-----5-6-5-1-|
E|2-----1-----1---|--------1---1---1-1-1---1-1-1-1-|2-----1-----1-----1-----5-----5-6-5-1-|
A|2-----1-----1---|--------1---1---1-1-1---1-1-1-1-|2-----1-----1-----1-----5-----5-6-5-1-|
                           PM---------------------|

e|---------------------------------|--------------------------------|
B|---------------------------------|--------------------------------|
G|4-----3-----3-----7--------------|--------------------------------|
D|4-----3-----3-----7--------------|--------------------------------|
A|2-----1-----1-----5--------------|--------------------------------|
E|2-----1-----1-----5--------------|--------------------------------|
A|2-----1-----1-----5-----13\------|--------------------------------|


[Verse Part 1]
(Guitar 1)
e|--------------------------------|---------------------------------|
B|--------------------------------|---------------------------------|
G|--------------------------------|---------------------------------|
D|--------------------------------|---------------------------------|
A|--------------------------------|---------------------------------|
E|1---------------9-8-7-6-1-------|--------1-1-1-1--7p4---------4h7-|
A|1---------------9-8-7-6-1-------|--------1-1-1-1------8-5-5-8-----|
                  PM-------|                            PM-----|

e|--------------------------------|---------------------------------|
B|--------------------------------|---------------------------------|
G|--------------------------------|---------------------------------|
D|--------------------------------|---------------------------------|
A|--------------------------------|---------------------------------|
E|1-------1-1-1-1-1---5-8-5-8-----|--------1-1-1-1--7p4---------4h7-|
A|1-------1-1-1-1-1---5-8-5-8-----|--------1-1-1-1------8-5-5-8-----|
          PM-------|  PM-----|                          PM-----|

(Guitar 2)
e|--------------------------------|--------------------------------|
B|--------------------------------|--------------------------------|
G|--------------------------------|--------------------------------|
D|--------------------------------|--------------------------------|(x2)
A|--------------------------------|--------------------------------|
E|--------------------------------|----------------7p4---------4h7-|
A|4-4-1-1-4-4-1-1-5-5-4-4-4-4-1-1-|4-4-1-1-5-5-4-4-----8-5-5-8-----|
                                                       PM-----|

[Verse Part 2]
(Guitar 1)
e|--------------------------------|--------------------------------|
B|--------------------------------|--------------------------------|
G|--------------------------------|--------------------------------|
D|--------------------------------|--------------------------------|
A|--------------------------------|--------------------------------|
E|--------------------------------|----------------7p4---------4h7-|
A|4-4-1-1-4-4-1-1-5-5-4-4-4-4-1-1-|4-4-1-1-5-5-4-4-----8-5-5-8-----|
                                                       PM-----|
                   
e|--------------------------------|------------------------------------|
B|--------------------------------|------------------------------------|
G|--------------------------------|------------------------------------|
D|--------------------------------|------------------------------------|(x2)
A|--------------------------------|------------------------------------|
E|--------------------------------|7p4---------4h7-10p7-----------7h10-|
A|4-4-1-1-4-4-1-1-5-5-4-4-4-4-1-1-|----8-5-5-8----------11-8-8-11------|
                                       PM-----|         PM-------|

(Guitar 2)
e|--------------------------------|--------------------------------|
B|--------------------------------|--------------------------------|
G|--------------------------------|--------------------------------|
D|--------------------------------|--------------------------------|
A|--------------------------------|--------------------------------|
E|--------------------------------|----------------7p4---------4h7-|
A|4-4-1-1-4-4-1-1-5-5-4-4-4-4-1-1-|4-4-1-1-5-5-4-4-----8-5-5-8-----|
                                                       PM-----|

  1st Ending
e|--------------------------------|------------------------------------|
B|--------------------------------|------------------------------------|
G|--------------------------------|------------------------------------|
D|--------------------------------|------------------------------------|
A|--------------------------------|------------------------------------|
E|--------------------------------|7p4---------4h7-10p7-----------7h10-|
A|4-4-1-1-4-4-1-1-5-5-4-4-4-4-1-1-|----8-5-5-8----------11-8-8-11------|
                                       PM-----|         PM-------|

  2nd Ending
e|--------------------------------|--------------------------------------------|
B|--------------------------------|--------------------------------------------|
G|--------------------------------|--------------------------------------------|
D|--------------------------------|--------------------------------------------|
A|--------------------------------|--------------------------------------------|
E|--------------------------------|10p7-----------7h10-13p10-------------10h13-|
A|7-7-1-1-7-7-1-1-8-8-7-7-7-7-1-1-|-----11-8-8-11------------14-11-11-14-------|
                                        PM-------|           PM---------|

[Breakdown]
(Guitar 1)
e|--------------------------------|--------------------------------|
B|--------------------------------|--------------------------------|
G|--------------------------------|--------------------------------|
D|--------------------------------|--------------------------------|
A|--------------------------------|--------------------------------|
E|0---------------0-0-0-0-0-------|0---0---0---0---0---------------|
A|0---------------0-0-0-0-0-------|0---0---0---0---0---------------|
  PM---|          PM-------|       PM------------------|

                                   1st Ending           2nd Ending
e|--------------------------------|--------------------|------------------------|
B|--------------------------------|--------------------|------------------------|
G|--------------------------------|--------------------|------------------------|
D|--------------------------------|--------------------|------------------------|
A|--------------------------------|--------------------|------------------------|
E|----------------0-0-0-0-0-------|----7p4---------4h7-|----10p7-----------7h10-|
A|----------------0-0-0-0-0-------|--------8-5-5-8-----|---------11-8-8-11------|
                  PM-------|               PM-----|              PM-------|

(Guitar 2)                 1st Ending               2nd Ending
e|------------------------|------------------------|---------12-13-16----------16-17-19-|
B|------12-13-12----------|------------------12-13-|12-13-15----------15-17-18----------|
G|13-14----------14-13-14-|---13----14-13-14-------|------------------------------------|
D|------------------------|15----15----------------|------------------------------------|(x4)
A|------------------------|------------------------|------------------------------------|
E|------------------------|------------------------|------------------------------------|
A|------------------------|------------------------|------------------------------------|

e|17--------------|
B|----------------|
G|----------------|
D|----------------|
A|----------------|
E|----------------|
A|----------------|

[Break]
(Guitar 1)                         1st Ending                       2nd Ending
e|--------------------------------|--------------------------------|----------------------------------------|
B|--------------------------------|--------------------------------|----------------------------------------|
G|--------------------------------|--------------------------------|----------------------------------------|
D|3-----------3--/4-------4-------|3-----------3--/4---------------|3---------------------------------------|
A|1-----------1--/2-------2-------|1-----------1--/2---------------|1---------------------------------------|
E|1---0---0---1--/2---0---2---0---|1---0---0---1--/2---0-----------|1---1-1-1-1---1-1-1-1---5--4--1-4-------|
A|1---0---0---1--/2---0---2---0---|1---0---0---1--/2---0---0-0-0-0-|1---1-1-1-1---1-1-1-1---5--4--1-4-------|
      PM-----|        PM-|    PM-|     PM-----|        PM---------|     PM-----|  PM-----|  PM-------------|

(Guitar 2)
e|--------------------------------|--------------------------------|
B|--------------------------------|--------------------------------|
G|--------------------------------|--------------------------------|
D|3-------------------------------|3-------------------------------|
A|1-------------------------------|1-------------------------------|
E|1-------------------------------|1---------------5--4--1-4-------|
A|1-------------------------------|1---------------5--4--1-4-------|
                                                   PM-------------|

[Bridge]
(Guitar 1 and 2)                   1st Ending                       2nd Ending
e|--------------------------------|--------------------------------|------------------------------------|
B|--------------------------------|--------------------------------|------------------------------------|
G|--------------------------------|--------------------------------|------------------------------------|
D|--------------------------------|--------------------------------|------------------------------------|(x2)
A|--------------------------------|--------------------------------|------------------------------------|
E|2---0---0---1---2---0---2---0---|1---0---0-------0---1---5--4--1-|1---1-1-1-1---1-1-1-0--0--0-5--4--1-|
A|2---0---0---1---2---0---2---0---|1---0---0---1b--0---1---5--4--1-|1---1-1-1-1---1-1-1-0--0--0-5--4--1-|
      PM-----|        PM-|    PM-|     PM-----|    PM-|    PM-----|     PM-----|  PM-------------------|

e|--------------------------------|
B|--------------------------------|
G|--------------------------------|
D|--------------------------------|
A|--------------------------------|
E|2-2-2-2-2-2-2-------------------|
A|2-2-2-2-2-2-2-------------------|
  PM-----------|

[Verse 2]
(Guitar 1 and 2)                   1st Ending                         2nd Ending
e|--------------------------------|----------------------------------|-----------------------------------|
B|--------------------------------|----------------------------------|-----------------------------------|
G|--------------------------------|----------------------------------|-----------------------------------|
D|--------------------------------|----------------------------------|-----------------------------------|(x2)
A|--------------------------------|----------------------------------|-----------------------------------|
E|----4h7---------------------4h7-|----------------7-4-----10-7------|----------------10-7----13-10------|
A|5h8-----1-1-1-1-1-1-1-1-5h8-----|1-1-1-1-1-1-1-1-----8-5------11-8-|1-1-1-1-1-1-1-1-----11-8-----14-11-|
                                                       PM-|     PM--|                     PM--|    PM---|

[Solo]
(Guitar 1)
e|--------------------------------|--------------------------------|
B|--------------------------------|--------------------------------|
G|--------------------------------|--------------------------------|
D|--------------------------------|--------------------------------|
A|1-----------2-------------------|6-----------5-----------5-6-5-1-|
E|1-----------2-------------------|6-----------5-----------5-6-5-1-|
A|1-----------2-------------------|6-----------5-----------5-6-5-1-|

e|--------------------------------|--------------------------------|
B|--------------------------------|--------------------------------|
G|--------------------------------|--------------------------------|
D|--------------------------------|--------------------------------|
A|--------------------------------|--------------------------------|
E|--------------------------------|--------------------------------|
A|1-1-1-1-1-1-1-1-1-1-1-1-2-2-2-2-|2-2-2-2-2-2-2-2-2-2-2-2-2-2-2-2-|

e|--------------------------------|--------------------------------|
B|--------------------------------|--------------------------------|
G|--------------------------------|--------------------------------|
D|--------------------------------|--------------------------------|
A|--------------------------------|----------------5---6---5-------|
E|--------------------------------|----------------5---6---5-------|
A|6-6-6-6-6-6-6-6-6-6-6-6-5-5-5-5-|5-5-5-5-5-5-5-5-5---6---5-------|

e|--------------------------------|--------------------------------|
B|--------------------------------|--------------------------------|
G|--------------------------------|--------------------------------|
D|--------------------------------|------------------------7-8-7-3-|
A|1-----------2-------------------|6-----------5-----------5-6-5-1-|
E|1-----------2-------------------|6-----------5-----------5-6-5-1-|
A|1-----------2-------------------|6-----------5-----------5-6-5-1-|

e|--------------------------------|--------------------------------|
B|--------------------------------|--------------------------------|
G|--------------------------------|--------------------------------|
D|--------------------------------|--------------------------------|
A|1-----------2-------------------|6-----------5-------------------|
E|1-----------2-------------------|6-----------5-------------------|
A|1-----------2-------------------|6-----------5-------------------|

(Guitar 2)
e|----------------------------------------|----------------------------------------|
B|----------------------------------------|----------------------------------------|
G|----------13------------------13-15-16--|----------13------------------15--------|
D|13-15-16-----16-15--13-15-16------------|13-15-16-----16-15--13-15-16-----16-13--|
A|----------------------------------------|----------------------------------------|
E|----------------------------------------|----------------------------------------|
A|----------------------------------------|----------------------------------------|

e|----------------------------------------|----------16------------------18--------|
B|--------------------------15--18-18-16--|16-18-19-----19-18--16-18-19-----19-18--|
G|----------15-16-13--15-16---------------|----------------------------------------|
D|13-15-16--------------------------------|----------------------------------------|
A|----------------------------------------|----------------------------------------|
E|----------------------------------------|----------------------------------------|
A|----------------------------------------|----------------------------------------|

e|---------16--18-19-18--18h19p18p16-----16-|19-16--------------------------------------|
B|16-18-19----------------------------19----|------19-18--16-15-16--19-16---------------|
G|------------------------------------------|-----------------------------19--16-15-----|
D|------------------------------------------|---------------------------------------18--|
A|------------------------------------------|-------------------------------------------|
E|------------------------------------------|-------------------------------------------|
A|------------------------------------------|-------------------------------------------|

e|----------------------------------------------|----------------------------------|
B|----------------------------------------------|14b16-----------------------------|
G|16-15----------------------------------13-15--|----------------------------------|
D|------18-16--15-13-12-13--13-15-16--16--------|----------------------------------|
A|----------------------------------------------|----------------------------------|
E|----------------------------------------------|----------------------------------|
A|----------------------------------------------|----------------------------------|

e|13p9---------------------------9h|13p9----------9--18-14--------------|
B|-----11---------------------11---|-----11----11----------16-----------|
G|--------10---------------10------|--------10----------------15--------|
D|-----------11---------11---------|-----------------------------16-----|
A|--------------13p8h13------------|--------------------------------18--|
E|---------------------------------|------------------------------------|
A|---------------------------------|------------------------------------|

e|---------------14--18h23p18-14------------|19-14----------------------------|
B|------------16------------------16----16--|------16-------------------------|
G|---------15------------------------15-----|---------16----------------------|
D|------16----------------------------------|------------18-------------------|
A|13h18-------------------------------------|---------------18--14~-----------|
E|------------------------------------------|---------------------------------|
A|------------------------------------------|---------------------------------|

e|--------------------------------------|-------------------18-16-14-13-14-16--|
B|19-18-16-15-16-18--19-18-16-21-19-18--|16-18-19-21-19-18---------------------|
G|--------------------------------------|--------------------------------------|
D|--------------------------------------|--------------------------------------|
A|--------------------------------------|--------------------------------------|
E|--------------------------------------|--------------------------------------|
A|--------------------------------------|--------------------------------------|

e|18-16-14-19-18-16--14-16-18-19-18-16--|22-19-18-16-18-19--22-19-18-16-18-19--|
B|--------------------------------------|--------------------------------------|
G|--------------------------------------|--------------------------------------|
D|--------------------------------------|--------------------------------------|
A|--------------------------------------|--------------------------------------|
E|--------------------------------------|--------------------------------------|
A|--------------------------------------|--------------------------------------|

e|22b23---------------------22~-----|----------------19--18--16-|----------------------------------|
B|----------------------------------|---------------------------|14-----------------------13-------|
G|----------------------------------|---------------------------|----------------------------------|
D|----------------------------------|---------------------------|----------------------------------|
A|----------------------------------|---------------------------|----------------------------------|
E|----------------------------------|---------------------------|----------------------------------|
A|----------------------------------|---------------------------|----------------------------------|

[Breakdown]
(Guitar 1 and 2)
e|----------------------------------|--------------------------------|
B|----------------------------------|--------------------------------|
G|----------------------------------|--------------------------------|
D|----------------------------------|--------------------------------|
A|----------------------------------|--------------------------------|
E|0-0-0-0---0-0---------0-0-0-0-----|----0-0-0---0---0---0-0-----0-0-|
A|1-1-1-1---1-1---------1-1-1-1-----|----1-1-1---1---1---1-1-----1-1-|
  PM----------------------------------------------------------------|

e|----------------------------------|------------------------------------|
B|----------------------------------|------------------------------------|
G|----------------------------------|------------------------------------|
D|----------------------------------|------------------------------------|(x4)
A|----------------------------------|----------------------------2-------|
E|0-0-0-0---0-0---------0-0-0-0-----|0-0-0-0---0-0-0-0---0-0-0-0-2-------|
A|0-0-0-0---0-0---------0-0-0-0-----|0-0-0-0---0-0-0-0---0-0-0-0-2-------|
  PM-----|  PM-|        PM-----|     PM-----|  PM-----|  PM-----|

e|----------------------------------|------------------------------------|--------------------------------|
B|----------------------------------|------------------------------------|--------------------------------|
G|----------------------------------|------------------------------------|--------------------------------|
D|----------------------------------|------------------------------------|--------------------------------|
A|----------------------------------|----------------------------2-------|0-------------------------------|
E|0-0-0-0---0-0---------0-0-0-0-----|0-0-0-0---0-0-0-0---0-0-0-0-2-------|0-------------------------------|
A|0-0-0-0---0-0---------0-0-0-0-----|0-0-0-0---0-0-0-0---0-0-0-0-2-------|0-------------------------------|
  PM-----|  PM-|        PM-----|     PM-----|  PM-----|  PM-----|


************************************

| h   Hammer-on
| p   Pull-off
| b   Bend
| \   Slide down
| ~   Vibrato
| PM  Palm mute

************************************

            
            
Suggest correction
Creating personal tab
Creating personal tab
You can edit any tab online and save it as your Personal.

You can edit, replace or remove any tab part or add personal notes – all changes will be seen only by you.

Personal tabs can be accessed anytime from any device, even offline.
Learn more »
Give kudos to tab author, rate the tab!
1 2 3 4 5
comments
print report bad tab
2 comments total.
0 reply
LMBozovich 1,346 Jun 08, 2017 11:47 AM

Hey guys, thanks for viewing this tab. Make sure to rate it.

0 reply
LMBozovich 1,346 Jun 08, 2017 11:49 AM

On top of that, make sure to look out for my tab of Absolute Genocide. I'll be posting it today or tomorrow.

guest
You may want to rate the tab now too:
select rating
Wanna post a correction for this tab? Suggest correction