Oops, an error
Loading. Please wait.

They Will Know Another tab

version 1
version 1

Whole song

  • This version is based off the Tab Pro version, but... Show more

Interactive

349 views 6 this week
no commentswrite comment
1 2 3 4 5
2 more votes to show rating
add to favorites
×
Save as Personal and add changes to this tab that will be seen only by you. Learn more ›
×
You can save this tab as Personal to edit and correct it or add notes. All changes will be seen only by you. Learn more »
launch autoscroll
font size
0
reset
how to read this tab
guitar tuner
edit
Autoscroll
slow
fast
+/-
esc
set tempo
stop
Author
Difficulty
About this tab version
This version is based off the Tab Pro version, but with a few adjustments based off using ears a little more, and knowledge of 11/8 in the majority of the song. Was this info helpful? Yes No
Tuning = 7-String Drop G# (G#D#G#C#F#A#d#)


[Intro Part 1] Time Signature = 11/8
(Guitar 1)
d#|--------|
A#|--------|
F#|--------|
C#|--------|
G#|--------|
D#|5-6---5-|
G#|5-5---5-|
   PM    PM

d#|------------|------------|------------|--------|
A#|------------|------------|------------|--------|
F#|------------|------------|------------|--------|
C#|7-----------|------------|------------|--------|(x3)
G#|5-----------|------------|------------|--------|
D#|5-----------|------------|------------|5-6---5-|
G#|5-----------|------------|------------|5-5---5-|
                                          PM    PM

d#|------------|------------|------------|--------|
A#|------------|------------|------------|--------|
F#|------------|------------|------------|--------|
C#|------------|------------|------------|--------|
G#|------------|------------|------------|--------|
D#|5---------3-|------------|------------|5-6---5-|
G#|5---------5-|------------|------------|5-5---5-|
                                          PM    PM

d#|------------|------------|------------|--------|
A#|------------|------------|------------|--------|
F#|------------|------------|------------|--------|
C#|7-----------|------------|------------|--------|(x3)
G#|5-----------|------------|------------|--------|
D#|5-----------|------------|------------|5-6---5-|
G#|5-----------|------------|------------|5-5---5-|
                                          PM    PM

d#|------------|------------|------------|--------|
A#|------------|------------|------------|--------|
F#|------------|------------|------------|--------|
C#|------------|------------|------------|--------|
G#|------------|------------|------------|--------|
D#|5---------3-|------------|------------|5-6---5-|
G#|5---------5-|------------|------------|5-5---5-|
                                          PM    PM

d#|------------|------------|------------|--------|
A#|------------|------------|------------|--------|
F#|------------|------------|------------|--------|
C#|7-----------|------------|------------|--------|
G#|5-----------|------------|------------|--------|
D#|5-----------|------------|------------|5-6---5-|
G#|5-----------|------------|------------|5-5---5-|
                                          PM    PM

d#|------------|------------|------------|--------|
A#|------------|------------|------------|--------|
F#|------------|------------|------------|--------|
C#|7-----------|------------|------------|--------|
G#|5-----------|------------|------------|--------|
D#|5-----------|------------|------------|5-6-----|
G#|5-----------|------------|------------|5-5-----|
                                          PM

d#|------------|------------|------------|--------|
A#|------------|------------|------------|--------|
F#|------------|------------|------------|--------|
C#|7-----------|------------|------------|--------|
G#|5-----------|------------|------------|--------|
D#|5-----------|------------|------------|5-6---5-|
G#|5-----------|------------|------------|5-5---5-|
                                          PM    PM

d#|------------|------------|------------|--------|
A#|------------|------------|------------|--------|
F#|------------|------------|------------|--------|
C#|------------|------------|------------|--------|
G#|------------|------------|------------|--------|
D#|5---------3-|------------|------------|--------|
G#|5---------5-|------------|------------|--------|

(Guitar 2)
d#|--------0---|--------0---|--------0---|--------|
A#|------------|------------|------------|----6---|
F#|----7-------|----7-------|----7-------|--------|
C#|7-----------|7-----------|7-----------|7-------|
G#|------------|------------|------------|--------|
D#|------------|------------|------------|--------|
G#|------------|------------|------------|--------|

d#|--------0---|--------0---|--------0---|--------|
A#|------------|------------|------------|----8---|
F#|----7-------|----7-------|----7-------|--------|
C#|7-----------|7-----------|7-----------|7-------|(x4)
G#|------------|------------|------------|--------|
D#|------------|------------|------------|--------|
G#|------------|------------|------------|--------|

d#|------------|------------|------------|--------|
A#|------------|------------|------------|--------|
F#|------------|------------|------------|--------|
C#|7-----------|(7)---------|(7)---------|(7)-----|
G#|------------|------------|------------|--------|
D#|------------|------------|------------|--------|
G#|------------|------------|------------|--------|

d#|------------|------------|------------|--------|
A#|------------|------------|------------|--------|
F#|------------|------------|------------|--------|
C#|(7)---------|(7)---------|(7)---------|(7)-----|
G#|------------|------------|------------|--------|
D#|------------|------------|------------|--------|
G#|------------|------------|------------|--------|

d#|--------0---|--------0---|--------0---|--------|
A#|------------|------------|------------|----6---|
F#|----7-------|----7-------|----7-------|--------|
C#|7-----------|7-----------|7-----------|7-------|
G#|------------|------------|------------|--------|
D#|------------|------------|------------|--------|
G#|------------|------------|------------|--------|

d#|--------0---|--------0---|--------0---|--------|
A#|------------|------------|------------|--------|
F#|----7-------|----7-------|----7-------|--------|
C#|7-----------|7-----------|7-----------|--------|
G#|------------|------------|------------|--------|
D#|------------|------------|------------|--------|
G#|------------|------------|------------|--------|



[Intro Part 2] Time Signature = 4/4
(Guitar 1 and 2)
d#|--------------------------------|----------------------------------------|
A#|--------------------------------|----------------------------------------|
F#|--------------------------------|----------------------------------------|
C#|8-8-8-8-8-8-8-8-7-7-7-7-7-7-7-7-|7-7-7-7-7-7-7-7-10-10-10-10-10-10-10-10-|
G#|--------------------------------|----------------------------------------|
D#|6-6-6-6-6-6-6-6-5-5-5-5-5-5-5-5-|5-5-5-5-5-5-5-5-8--8--8--8--8--8--8--8--|
G#|--------------------------------|----------------------------------------|

d#|------------------------------------------------|--------------------------------|
A#|------------------------------------------------|--------------------------------|
F#|------------------------------------------------|--------------------------------|
C#|12-12-12-12-12-12-12-12-12-12-12-12-12-12-12-12-|8-8-8-8-8-8-8-8-7-------5-5-5-5-|
G#|------------------------------------------------|--------------------------------|
D#|10-10-10-10-10-10-10-10-10-10-10-10-10-10-10-10-|6-6-6-6-6-6-6-6-5---0---3-3-3-3-|
G#|------------------------------------------------|--------------------0-----------|

d#|--------------------------------|--------------------------------|
A#|--------------------------------|--------------------------------|
F#|--------------------------------|--------------------------------|
C#|8-8-8-8-8-8-8-8-8-8-8-8-8-8-8-8-|7-7-7-7-7-7-7-7-5-5-5-5-5-5-5-5-|
G#|--------------------------------|--------------------------------|
D#|6-6-6-6-6-6-6-6-6-6-6-6-6-6-6-6-|5-5-5-5-5-5-5-5-3-3-3-3-3-3-3-3-|
G#|--------------------------------|--------------------------------|

d#|--------------------------------------|--------------------------------------|
A#|--------------------------------------|--------------------------------------|
F#|12-12-12-12-12-12--12-12-12-12-12-12--|12-12-12-12-12-12--12-12-12-12-12-12--|
C#|--------------------------------------|--------------------------------------|
G#|--------------------------------------|--------------------------------------|
D#|10-10-10-10-10-10--10-10-10-10-10-10--|10-10-10-10-10-10--10-10-10-10-10-10--|
G#|--------------------------------------|--------------------------------------|

d#|--------------------------------------|--------------------------------------|
A#|--------------------------------------|--------------------------------------|
F#|--------------------------------------|--------------------------------------|
C#|11-11-11-11-11-11--11-11-11-11-11-11--|14-14-14-14-14-14--14-14-14-14-14-14--|
G#|--------------------------------------|--------------------------------------|
D#|9--9--9--9--9--9---9--9--9--9--9--9---|12-12-12-12-12-12--12-12-12-12-12-12--|
G#|--------------------------------------|--------------------------------------|


[Verse] Time Signature = 4/4
(Guitar 1 and 2)
d#|--------------------------------|--------------------------------|
A#|--------------------------------|--------------------------------|
F#|--------------------------------|--------------------------------|
C#|--------------------------------|--------------------------------|
G#|--------------------------------|--------------------------------|
D#|5-----------------------6-------|5-------5-------6-6-6-6--6---6--|
G#|5-------5-5-5-5-5-5-5-5-6-------|5-------5-----------------------|
           PM-------------|                 PM

d#|--------------------------------|--------------------------------|
A#|--------------------------------|--------------------------------|
F#|--------------------------------|--------------------------------|
C#|--------------------------------|--------------------------------|
G#|--------------------------------|--------------------------------|
D#|6-------5-------6-6-6-6-5-------|6---6---6---6---5---5---5---5---|
G#|--------5---------------5-------|--------------------------------|
           PM              PM

d#|--------------------------------|--------------------------------|
A#|--------------------------------|--------------------------------|
F#|--------------------------------|--------------------------------|
C#|--------------------------------|--------------------------------|
G#|--------------------------------|--------------------------------|
D#|5-----------------------6-------|5-------5-------6-6-6-6--6---6--|
G#|5-------5-5-5-5-5-5-5-5-6-------|5-------5-----------------------|
           PM-------------|                 PM

d#|--------------------------------|--------------------------------|
A#|--------------------------------|--------------------------------|
F#|--------------------------------|--------------------------------|
C#|--------------------------------|--------------------------------|
G#|--------------------------------|--------------------------------|
D#|6-------5-------6-6-6-6-5-------|6-5-----------10-9--------------|
G#|--------5---------------5-------|----8--7-5-4-------11--10-8-7---|
           PM                       PM-----------------------------|

d#|--------------------------------|--------------------------------|
A#|--------------------------------|--------------------------------|
F#|--------------------------------|--------------------------------|
C#|--------------------------------|--------------------------------|
G#|--------------------------------|--------------------------------|
D#|5-----------------------6-------|5-------5-------6-6-6-6--6---6--|
G#|5-------5-5-5-5-5-5-5-5-6-------|5-------5-----------------------|
           PM-------------|                 PM

d#|--------------------------------|--------------------------------|
A#|--------------------------------|--------------------------------|
F#|--------------------------------|--------------------------------|
C#|--------------------------------|--------------------------------|
G#|--------------------------------|--------------------------------|
D#|6-------5-------6-6-6-6-5-------|6---6---6---6---5---5---5---5---|
G#|--------5---------------5-------|--------------------------------|
           PM
                                                        1st Ending
d#|----------------------------------------------------|----------------------------------------------------|
A#|----------------------------------------------------|----------------------------------------------------|
F#|----------------------------------------------------|----------------------------------------------------|
C#|7-7-7-7-7-7--7-7-7-7-7-7--7-7-7-7-7-7--5-5-5-5-5-5--|7-7-7-7-7-7--7-7-7-7-7-7--8-8-8-8-8-8--8-8-8-8-8-8--|
G#|----------------------------------------------------|----------------------------------------------------|
D#|5-5-5-5-5-5--5-5-5-5-5-5--5-5-5-5-5-5--3-3-3-3-3-3--|5-5-5-5-5-5--5-5-5-5-5-5--6-6-6-6-6-6--6-6-6-6-6-6--|
G#|----------------------------------------------------|----------------------------------------------------|

  2nd Ending
d#|--------------------------|--------------------------|
A#|--------------------------|--------------------------|
F#|--------------------------|--------------------------|
C#|7-7-7-7-7-7--7-7-7-7-7-7--|8-8-8-8-8-8---------------|
G#|--------------------------|--------------------------|
D#|5-5-5-5-5-5--5-5-5-5-5-5--|6-6-6-6-6-6---------------|
G#|--------------------------|--------------------------|


[Chorus 1]
(Guitar 1 and 2)
d#|--------------------------------|--------------------------------|
A#|--------------------------------|--------------------------------|
F#|--------------------------------|--------------------------------|
C#|--------------------------------|--------------------------------|
G#|--------------------------------|--------------------------------|
D#|5---5---5---5---5---5---5---5---|5---5---5---5---5---5---5---3---|
G#|5---5---5---5---5---5---5---5---|5---5---5---5---5---5---5---5---|

d#|--------------------------------|--------------------------------|
A#|--------------------------------|--------------------------------|
F#|--------------------------------|--------------------------------|
C#|--------------------------------|--------------------------------|
G#|--------------------------------|--------------------------------|
D#|3---3---3---3---3---3---3---3---|3---3---3---3---3---3---3---3---|
G#|5---5---5---5---5---5---5---5---|5---5---5---5---5---5---5---5---|

d#|--------------------------------|--------------------------------|
A#|--------------------------------|--------------------------------|
F#|--------------------------------|--------------------------------|
C#|--------------------------------|--------------------------------|
G#|--------------------------------|--------------------------------|
D#|5---5---5---5---5---5---5---5---|5---5---5---5---5---5---5---3---|
G#|5---5---5---5---5---5---5---5---|5---5---5---5---5---5---5---5---|

d#|--------------------------------|--------------------------------|
A#|--------------------------------|--------------------------------|
F#|--------------------------------|--------------------------------|
C#|--------------------------------|--------------------------------|
G#|--------------------------------|--------------------------------|
D#|3---3---3---3---3---3---3---3---|--------------------------------|
G#|5---5---5---5---5---5---5---5---|--------------------------------|


[Breakdown 1]
(Guitar 1 and 2)
d#|--------------------------------|--------------------------------|
A#|--------------------------------|--------------------------------|
F#|--------------------------------|--------------------------------|
C#|--------------------------------|--------------------------------|
G#|--------------------------------|--------------------------------|
D#|1-------1-1-1-1-1-1-----1-1-1-1-|1-1---------1-1-1-1-------------|
G#|0-------0-0-0-0-0-0-----0-0-0-0-|0-0---------0-0-0-0-------------|
           PM---------|    PM----------|        PM-----|

d#|--------------------------------|--------------------------------------|
A#|--------------------------------|--------------------------------------|
F#|--------------------------------|--------------------------------------|
C#|--------------------------------|--------------------------------------|(x2)
G#|--------------------------------|--------------------------------------|
D#|----1-1-1-1-1-1---------1-1-1-1-|1-1-1-1---1---1-1-1-1---1---1-1-1-1---|
G#|----0-0-0-0-0-0---------0-0-0-0-|0-0-0-0---0---0-0-0-0---0---0-0-0-0---|
       PM---------|        PM--------------------------------------------|

(Guitar 1)
d#|--------------------------------|--------------------------------|
A#|--------------------------------|--------------------------------|
F#|--------------------------------|--------------------------------|
C#|--------------------------------|--------------------------------|
G#|--------------------------------|--------------------------------|
D#|6-------6-6-6-6-6-6-----6-6-6-6-|6-6---------6-6-6-6-------------|
G#|5-------5-5-5-5-5-5-----5-5-5-5-|5-5---------5-5-5-5-------------|
           PM---------|    PM----------|        PM-----|

d#|--------------------------------|--------------------------------------|
A#|--------------------------------|--------------------------------------|
F#|--------------------------------|--------------------------------------|
C#|--------------------------------|--------------------------------------|
G#|--------------------------------|--------------------------------------|
D#|----6-6-6-6-6-6---------6-6-6-6-|6-6-6-6---6---6-6-6-6---6---6-6-6-6---|
G#|----5-5-5-5-5-5---------5-5-5-5-|5-5-5-5---5---5-5-5-5---5---5-5-5-5---|
       PM---------|        PM--------------------------------------------|

d#|--------------------------------|--------------------------------|
A#|--------------------------------|--------------------------------|
F#|--------------------------------|--------------------------------|
C#|--------------------------------|--------------------------------|
G#|--------------------------------|--------------------------------|
D#|6-------6-6-6-6-6-6-----6-6-6-6-|6-6---------6-6-6-6-------------|
G#|5-------5-5-5-5-5-5-----5-5-5-5-|5-5---------5-5-5-5-------------|
           PM---------|    PM----------|        PM-----|

d#|--------------------------------|--------------------------------|
A#|--------------------------------|--------------------------------|
F#|--------------------------------|--------------------------------|
C#|--------------------------------|--------------------------------|
G#|--------------------------------|--------------------------------|
D#|----6-6-6-6-6-6---------6-6-6-6-|6-6-------------5---6-------5---|
G#|----5-5-5-5-5-5---------5-5-5-5-|5-5-------------5---5-------5---|
       PM---------|        PM----------|            PM-|        PM-|

(Guitar 2)
d#|------------------------|------------------------|------------------------|------------------------|
A#|11----11----------------|11----11----------------|11----11----------------|11----11----------------|
F#|---14----14----14----14-|---14----14----14----14-|---14----14----12----12-|---14----14----12----12-|
C#|------------12----12----|------------12----12----|------------12----12----|------------12----12----|(x2)
G#|------------------------|------------------------|------------------------|------------------------|
D#|------------------------|------------------------|------------------------|------------------------|
G#|------------------------|------------------------|------------------------|------------------------|
   Let Ring

[Bridge] Time Signature = 11/8
(Guitar 1)
d#|------------|------------|------------|--------|
A#|------------|------------|------------|--------|
F#|------------|------------|------------|--------|
C#|7-----------|------------|------------|--------|(x3)
G#|5-----------|------------|------------|--------|
D#|5-----------|------------|------------|5-6---5-|
G#|5-----------|------------|------------|5-5---5-|
                                          PM    PM

Time Change to 12/8
d#|------------|------------|--------------------------------------|--------------------------------------|
A#|------------|------------|--------------------------------------|--------------------------------------|
F#|------------|------------|--------------------------------------|--------------------------------------|
C#|------------|------------|12-12-12-12-12-12--12-12-12-12-12-12--|14-14-14-14-14-14--14-14-14-14-14-14--|
G#|------------|------------|--------------------------------------|--------------------------------------|
D#|5---------3-|------------|9--9--9--9--9--9---9--9--9--9--9--9---|12-12-12-12-12-12--12-12-12-12-12-12--|
G#|5---------5-|------------|--------------------------------------|--------------------------------------|


(Guitar 2)
d#|------------------------|------------------------|------------------------|----------------|
A#|------------------------|14g15-------------------|------------------------|--------13--13--|
F#|12g14-------12----------|------------14g12-------|10----------------------|----------------|
G#|------------------------|------------------------|------------------------|----------------|
D#|------------------------|------------------------|------------------------|----------------|
G#|------------------------|------------------------|------------------------|----------------|

d#|------------------------|---------------------------|---------------------|----------------|
A#|------------------------|---------------------------|---------------------|--------13------|
F#|12g14-------------------|------------------14p12\10\|9--------------------|10--10----------|
C#|------------------------|---------------------------|---------------------|----------------|
G#|------------------------|---------------------------|---------------------|----------------|
D#|------------------------|---------------------------|---------------------|----------------|
G#|------------------------|---------------------------|---------------------|----------------|

d#|------------------------|------------------------|------------------------|----------------|
A#|------------------------|15----------------------|------------------------|----------------|
F#|12g14-------12----------|------------------------|------------------------|9-------10------|
C#|------------------------|------------------------|------------------------|----------------|
G#|------------------------|------------------------|------------------------|----------------|
D#|------------------------|------------------------|------------------------|----------------|
G#|------------------------|------------------------|------------------------|----------------|

Time Change to 12/8
d#|------------------------|------------------------|------------------------|------------------------|
A#|------------------------|------------------------|15----------------------|------------------------|
F#|12----------9-----------|12g14-------12--10--9---|--------------------14--|18b19-------------------|
C#|------------------------|------------------------|----------------15------|------------------------|
G#|------------------------|------------------------|------------17----------|------------------------|
D#|------------------------|------------------------|------------------------|------------------------|
G#|------------------------|------------------------|------------------------|------------------------|


[Solo] Time Signature = 4/4
(Guitar 1)
d#|--------------------------------|--------------------------------|
A#|--------------------------------|--------------------------------|
F#|--------------------------------|--------------------------------|
C#|--------------------------------|--------------------------------|
G#|--------------------------------|--------------------------------|
D#|5-----------------------6-------|5-------5-------6-6-6-6--6---6--|
G#|5-------5-5-5-5-5-5-5-5-6-------|5-------5-----------------------|
           PM-------------|                 PM

d#|--------------------------------|--------------------------------|
A#|--------------------------------|--------------------------------|
F#|--------------------------------|--------------------------------|
C#|--------------------------------|--------------------------------|
G#|--------------------------------|--------------------------------|
D#|6-------5-------6-6-6-6-5-------|6---6---6---6---5---5---5---5---|
G#|--------5---------------5-------|--------------------------------|
           PM              PM

d#|--------------------------------|--------------------------------|
A#|--------------------------------|--------------------------------|
F#|--------------------------------|--------------------------------|
C#|--------------------------------|--------------------------------|
G#|--------------------------------|--------------------------------|
D#|5-----------------------6-------|5-------5-------6-6-6-6--6---6--|
G#|5-------5-5-5-5-5-5-5-5-6-------|5-------5-----------------------|
           PM-------------|                 PM

d#|--------------------------------|--------------------------------|
A#|--------------------------------|--------------------------------|
F#|--------------------------------|--------------------------------|
C#|--------------------------------|--------------------------------|
G#|--------------------------------|--------------------------------|
D#|6-------5-------6-6-6-6-5-------|6-5-----------10-9--------------|
G#|--------5---------------5-------|----8--7-5-4-------11--10-8-7---|
           PM                       PM-----------------------------|

d#|--------------------------------|--------------------------------|
A#|--------------------------------|--------------------------------|
F#|--------------------------------|--------------------------------|
C#|--------------------------------|--------------------------------|
G#|--------------------------------|--------------------------------|
D#|5-----------------------6-------|5-------5-------6-6-6-6--6---6--|
G#|5-------5-5-5-5-5-5-5-5-6-------|5-------5-----------------------|
           PM-------------|                 PM

d#|--------------------------------|--------------------------------|
A#|--------------------------------|--------------------------------|
F#|--------------------------------|--------------------------------|
C#|--------------------------------|--------------------------------|
G#|--------------------------------|--------------------------------|
D#|6-------5-------6-6-6-6-5-------|6---6---6---6---5---5---5---5---|
G#|--------5---------------5-------|--------------------------------|
           PM

d#|----------------------------------------------------|----------------------------------------------------|
A#|----------------------------------------------------|----------------------------------------------------|
F#|----------------------------------------------------|----------------------------------------------------|
C#|7-7-7-7-7-7--7-7-7-7-7-7--7-7-7-7-7-7--5-5-5-5-5-5--|7-7-7-7-7-7--7-7-7-7-7-7--8-8-8-8-8-8---------------|
G#|----------------------------------------------------|----------------------------------------------------|
D#|5-5-5-5-5-5--5-5-5-5-5-5--5-5-5-5-5-5--3-3-3-3-3-3--|5-5-5-5-5-5--5-5-5-5-5-5--6-6-6-6-6-6---------------|
G#|----------------------------------------------------|----------------------------------------------------|

(Guitar 2)
d#|----------------------------------------|----------------------------------------|
A#|----------16-18-19--18-16---------------|----------------------------------------|
F#|15-17-18------------------18--17-18-17--|15-14-15--17-15-17--15-14---------------|
C#|----------------------------------------|--------------------------15--14-12-10--|
G#|----------------------------------------|----------------------------------------|
D#|----------------------------------------|----------------------------------------|
G#|----------------------------------------|----------------------------------------|

d#|--------------------------------------|--------------------------------------|
A#|--------------------------------------|--------------------------------------|
F#|--------------------------------------|--------------------------------------|
C#|11-10-8--8-10-11----------------------|--------------------------------------|
G#|------------------13-15-13--12--------|--------------------------------------|
D#|-------------------------------14-13--|11-9-8--------------------------------|
G#|--------------------------------------|--------13-12-13--15-16-18--20-13-15--|

d#|---------------------------------------|----------------------------------------|
A#|---------------------------------------|----------------------------------------|
F#|---------------------------------------|----------------------------------------|
C#|---------------------------------------|----------------------------------------|
G#|---------10-12-13--------10--12-13-15--|------10--12-13-10--12-13--------12-13--|
D#|9-11-13------------11-13---------------|11-13---------------------12--13--------|
G#|---------------------------------------|----------------------------------------|

d#|----------------------------------------|------------------------------------17--|
A#|----------------------------------------|-------------14-16--18--------14-16-----|
F#|---------------------------------14-15--|17-14-15--17-----------15-17------------|
C#|---12-13--15--------12-13-15--16--------|----------------------------------------|
G#|15-----------13-15----------------------|----------------------------------------|
D#|----------------------------------------|----------------------------------------|
G#|----------------------------------------|----------------------------------------|

d#|18-----------------17-------15-------------|---18-17-------------18p17-------------------------|
A#|-------------------------------------------|15----------17~------------18----------------------|
F#|-------------14-15----14-12----14-12-10-12-|---------15--------------------19------------------|
C#|-------------------------------------------|----------------------------------19---------------|
G#|-------------------------------------------|------------------------------------20--17~--------|
D#|-------------------------------------------|---------------------------------------------------|
G#|-------------------------------------------|---------------------------------------------------|

d#|------------------------------------------|----------18---17------------|
A#|--------------------15g17------------15---|17---15-------------15-------|
F#|15g14-----15g12---------------------------|-----------------------------|
C#|------------------------------------------|-----------------------------|
G#|------------------------------------------|-----------------------------|
D#|------------------------------------------|-----------------------------|
G#|------------------------------------------|-----------------------------|


[Chorus 2]
(Guitar 1 and 2)
d#|--------------------------------|--------------------------------|
A#|--------------------------------|--------------------------------|
F#|--------------------------------|--------------------------------|
C#|--------------------------------|--------------------------------|
G#|--------------------------------|--------------------------------|
D#|5---5---5---5---5---5---5---5---|5---5---5---5---5---5---5---3---|
G#|5---5---5---5---5---5---5---5---|5---5---5---5---5---5---5---5---|

d#|--------------------------------|--------------------------------|
A#|--------------------------------|--------------------------------|
F#|--------------------------------|--------------------------------|
C#|--------------------------------|--------------------------------|
G#|--------------------------------|--------------------------------|
D#|3---3---3---3---3---3---3---3---|3---3---3---3---3---3---3---3---|
G#|5---5---5---5---5---5---5---5---|5---5---5---5---5---5---5---5---|

d#|--------------------------------|--------------------------------|
A#|--------------------------------|--------------------------------|
F#|--------------------------------|--------------------------------|
C#|--------------------------------|--------------------------------|
G#|--------------------------------|--------------------------------|
D#|5---5---5---5---5---5---5---5---|5---5---5---5---5---5---5---3---|
G#|5---5---5---5---5---5---5---5---|5---5---5---5---5---5---5---5---|

d#|--------------------------------|--------------------------------|
A#|--------------------------------|--------------------------------|
F#|--------------------------------|--------------------------------|
C#|--------------------------------|--------------------------------|
G#|--------------------------------|--------------------------------|
D#|3---3---3---3---3---3---3---3---|3---3---3---3---3---3---3---3---|
G#|5---5---5---5---5---5---5---5---|5---5---5---5---5---5---5---5---|

d#|--------------------------------|--------------------------------|
A#|--------------------------------|--------------------------------|
F#|--------------------------------|--------------------------------|
C#|--------------------------------|--------------------------------|
G#|--------------------------------|--------------------------------|
D#|5---5---5---5---5---5---5---5---|5---5---5---5---5---5---5---3---|
G#|5---5---5---5---5---5---5---5---|5---5---5---5---5---5---5---5---|

d#|--------------------------------|--------------------------------|
A#|--------------------------------|--------------------------------|
F#|--------------------------------|--------------------------------|
C#|--------------------------------|--------------------------------|
G#|--------------------------------|--------------------------------|
D#|3---3---3---3---3---3---3---3---|3---3---3---3---3---3---3---3---|
G#|5---5---5---5---5---5---5---5---|5---5---5---5---5---5---5---5---|

d#|--------------------------------|--------------------------------|
A#|--------------------------------|--------------------------------|
F#|--------------------------------|--------------------------------|
C#|--------------------------------|--------------------------------|
G#|--------------------------------|--------------------------------|
D#|5---5---5---5---5---5---5---5---|5---5---5---5---5---5---5---3---|
G#|5---5---5---5---5---5---5---5---|5---5---5---5---5---5---5---5---|

d#|--------------------------------|--------------------------------|
A#|--------------------------------|--------------------------------|
F#|--------------------------------|--------------------------------|
C#|--------------------------------|--------------------------------|
G#|--------------------------------|--------------------------------|
D#|3---3---3---3---3---3---3---3---|----------------5---6-------5---|
G#|5---5---5---5---5---5---5---5---|----------------5---5-------5---|


[Build-Up]
(Guitar 1)
d#|--------------------------------|--------------------------------|--------------------------------|
A#|--------------------------------|--------------------------------|--------------------------------|
F#|--------------------------------|--------------------------------|--------------------------------|
C#|--------------------------------|--------------------------------|--------------------------------|(x3)
G#|--------------------------------|--------------------------------|--------------------------------|
D#|1---0---0---0---0---0---0---0---|0---1---0---0---0---0---0---1---|0---0---0---1---0---0---0---0---|
G#|0---0---0---0---0---0---0---0---|0---0---0---0---0---0---0---0---|0---0---0---0---0---0---0---0---|
       PM-|    PM----------------------|        PM-------------|     PM---------|        PM-|    PM-|

                        And have to watch   you     SUFFER!
d#|--------------------------------|--------------------------------|
A#|--------------------------------|--------------------------------|
F#|--------------------------------|--------------------------------|
C#|--------------------------------|--------------------------------|
G#|--------------------------------|--------------------------------|
D#|--------------------------------|----------------0---0-----------|
G#|--------------------------------|----------------0---0-----------|

(Guitar 2)
d#|--------------------------------|--------------------------------|
A#|--------------------------------|--------------------------------|
F#|--------------------------------|--------------------------------|
C#|7---------------------------8---|--------5-----------------------|
G#|--------------------------------|--------------------------------|
D#|5---------------------------6---|--------3-----------------------|
G#|--------------------------------|--------------------------------|

d#|--------------------------------|--------------------------------|----------------|----------------|
A#|--------------------------------|--------------------------------|----------------|----------------|
F#|--------------------------------|--------------------------------|----------------|----------------|
C#|----------------------------3---|--------------------------------|----------------|----------------|
G#|--------------------------------|----------------------------7---|----------------|----------------|
D#|----------------------------1---|--------------------------------|----------------|----------------|
G#|--------------------------------|----------------------------7---|----------------|0---------------|

                        And have to watch   you     SUFFER!
d#|--------------------------------|--------------------------------|
A#|--------------------------------|--------------------------------|
F#|--------------------------------|--------------------------------|
C#|--------------------------------|--------------------------------|
G#|--------------------------------|--------------------------------|
D#|1---0---0---0---0---0---0---0---|0---1---0---0---0---0-----------|
G#|0---0---0---0---0---0---0---0---|0---0---0---0---0---0-----------|
       PM-|    PM----------------------|        PM-|


[Breakdown 2 Part 1]
(Guitar 1 and 2)
d#|--------------------------------|--------------------------------|--------------------------------|
A#|--------------------------------|--------------------------------|--------------------------------|
F#|--------------------------------|--------------------------------|--------------------------------|
C#|--------------------------------|--------------------------------|--------------------------------|(x2)
G#|--------------------------------|--------------------------------|--------------------------------|
D#|1---0---0---0---0---0---0---0---|0---1---0---0---0---0---0---1---|0---0---0---1---0---0---0---0---|
G#|0---0---0---0---0---0---0---0---|0---0---0---0---0---0---0---0---|0---0---0---0---0---0---0---0---|
       PM-|    PM----------------------|        PM-------------|     PM---------|        PM-|    PM-|


[Breakdown 2 Part 2]
(Guitar 1)                                                           1st Ending
d#|--------------------------------|--------------------------------|--------------------------------|
A#|--------------------------------|--------------------------------|--------------------------------|
F#|--------------------------------|--------------------------------|--------------------------------|
C#|--------------------------------|--------------------------------|--------------------------------|
G#|--------------------------------|--------------------------------|--------------------------------|
D#|6---5---5---5---5---5---5---5---|5---6---5---5---5---5---5---6---|5---5---5---6---5---5---5---5---|
G#|5---5---5---5---5---5---5---5---|5---5---5---5---5---5---5---5---|5---5---5---5---5---5---5---5---|
       PM-|    PM----------------------|        PM-------------|     PM---------|        PM-|    PM-|

   2nd Ending
d#|--------------------------------|
A#|--------------------------------|
F#|--------------------------------|
C#|--------------------------------|
G#|--------------------------------|
D#|5---5---5---6---5---6-------5---|
G#|5---5---5---5---5---5-------5---|
   PM---------|    PM-|        PM-|

(Guitar 2)
d#|--------0---|--------0---|--------0---|------------|
A#|------------|------------|------------|------------|
F#|----7-------|----7-------|----7-------|----6-------|
C#|7-----------|7-----------|7-----------|7-------7---|(x2)
G#|------------|------------|------------|------------|
D#|------------|------------|------------|------------|
G#|------------|------------|------------|------------|


[Outro] Time Signature = 11/8
(Guitar 1)
d#|------------|------------|------------|--------|
A#|------------|------------|------------|--------|
F#|------------|------------|------------|--------|
C#|7-----------|------------|------------|--------|
G#|5-----------|------------|------------|--------|
D#|5-----------|------------|------------|5-6---5-|
G#|5-----------|------------|------------|5-5---5-|
                                          PM    PM

d#|------------|------------|------------|--------|
A#|------------|------------|------------|--------|
F#|------------|------------|------------|--------|
C#|------------|------------|------------|--------|
G#|------------|------------|------------|--------|
D#|5-----------|3-----------|------------|--------|
G#|5-----------|5-----------|------------|--------|

(Guitar 2)
d#|--------0---|--------0---|--------0---|--------|
A#|------------|------------|------------|----8---|
F#|----7-------|----7-------|----7-------|--------|
C#|7-----------|7-----------|7-----------|7-------|
G#|------------|------------|------------|--------|
D#|------------|------------|------------|--------|
G#|------------|------------|------------|--------|

d#|--------0---|--------0---|------------|--------|
A#|------------|------------|------------|--------|
F#|----7-------|----7-------|------------|--------|
C#|7-----------|7-----------|------------|--------|
G#|------------|------------|------------|--------|
D#|------------|------------|------------|--------|
G#|------------|------------|------------|--------|


************************************

| g   Grace note
| (n) Ghost note
| p   Pull-off
| b   Bend
| \   Slide down
| ~   Vibrato
| PM  Palm mute

************************************

            
            
Suggest correction
Creating personal tab
Creating personal tab
You can edit any tab online and save it as your Personal.

You can edit, replace or remove any tab part or add personal notes – all changes will be seen only by you.

Personal tabs can be accessed anytime from any device, even offline.
Learn more »
Give kudos to tab author, rate the tab!
1 2 3 4 5
comments
print report bad tab
guest
You may want to rate the tab now too:
select rating
Wanna post a correction for this tab? Suggest correction