Oops, an error
Loading. Please wait.

Voyager tab

507 views 1 this week
no commentswrite comment
1 2 3 4 5
3 more votes to show rating
add to favorites
×
Save as Personal and add changes to this tab that will be seen only by you. Learn more ›
×
You can save this tab as Personal to edit and correct it or add notes. All changes will be seen only by you. Learn more »
launch autoscroll
font size
0
reset
how to read this tab
guitar tuner
edit
Autoscroll
slow
fast
+/-
esc
set tempo
stop
Author
                                    THE VOYAGER
                              (As recorded by Thyrfing
                         from the 2002 album Vansinnesvisor)
                              VERSION 1.0 - October 2002


Transcribed by Cristi Rachitovan
mail: decietful@hotmail.com
IRC:  undernet's #metal as "Stromblad"

... = palm mute         h = hammer-on
/,\ = slide             p = pull-off
~   = vibrato

I'm sure you'll figure out the timing, and the minor variations
which are vaguely represented here.

Tune to 1 whole step down (DGCFAD)


1a) [intro] (0:06 - 0:31) [1a] x3 then [1b]
D|-----|-----0--------------------------------------------------|
A|-----|-----0--------------------------------------------------|
F|-----|--------------------------------------------------------|
C|-----|--9-----7--9-10----9-7-9--7-5-7--5-4-5--4-2-4-----------|
G|-----|--7-----5--7--8----7-5-7--5-3-5--3-2-3--2-0-2-----------|
D|-0-0-|--0-------------------------------------------0-000-0---|
   ...                                                . ... .
1b)
D|-----0--------------------------------------------------|
A|-----0--------------------------------------------------|
F|------------------------------------------7--9----------|
C|--9-----7--9-10----9-7-9--7-5-7--5-4-5----7--9----------|
G|--7-----5--7--8----7-5-7--5-3-5--3-2-3----5--7----------|
D|--0------------------------------------------0----------|

2) [pre-verse] (0:31 - 0:42)
D|----------------------------------------------------|
A|----------------------------------------------------|
F|----------------9-----------------------------------| G1
C|----------------9-----------------------------------|
G|----------------7-----------------------------------|
D|--0-0---0---0-0-0-----------------------------------|
 |  ...   .   ...                                     |
D|----------------------------------------------------|
A|----------------------------------------------------|
F|----------------------------------------------------| G2
C|-----------------9-10--9--7--9-10--9--7--9-10--9--7-|
G|-----------------7--8--7--5--7--8--7--5--7--8--7--5-|
D|--0-0---0---0--0------------------------------------|
    ...............
D|--------------------|
A|--------------------|
F|--------------------|
C|--------------------|
G|--------------------|
D|--0-0-0-0-0-0-0-0---|
    ...............

3) [verse] (0:43 - 0:54)
D|------------------------------------------------------------|
A|------------------------------------------------------------|
F|------------------------------------------------------------|
C|--9---10--9--7--9---10--9--7--9---10--9--7------------------|
G|--7----8--7--5--7----8--7--5--7----8--7--5------------------|
D|-------------------------------------------0-0-0-0-0-0-0-0--|
                                             ...............
D|----------------------------------------------------------|
A|----------------------------------------------------------|
F|----------------------------------------------------------|
C|--9---10--9--7--9---10--9--7--9---10--9--7----------------|
G|--7----8--7--5--7----8--7--5--7----8--7--5----------------|
D|-------------------------------------------0-0---0---0-0--|
                                             ...   .   ...
2) [pre-verse] (0:55 - 1:06)
3) [verse] x2 (1:07 - 1:30)

4) [pre-chorus] x2 (1:31 - 1:54) [4a] x2 then [4b]
D|--------------------------------------------------------------|
A|--------------------------------------------------------------|
F|--------------------------------------------------------------|
C|------9---9------9---9------9---9---9/12--12--9--9/10--10--9--|
G|--7-7-7-7-7--7-7-7-7-7--7-7-7-7-7---7/10--10--7--7/-8---8--7--|
D|--7-7---7-7--7-7---7-7--7-7---7-7-----------------------------|
    ...   .    ...   .    ...     .


4b)
D|-----------------|
A|-----------------|
F|--9-----------9--|
C|--9-----------9--|
G|--7-----------7--|
D|--0-----------0--|

5) [chorus] x2 (1:55 - 2:19)
D|-----------------------------------------------|
A|-----------------------------------------------|
F|-----------------------------------------------|
C|------9---9------9---9------7---7-------8---8--|
G|--7-7-7-7-7--7-7-7-7-7--5-5-5-5-5---6-6-6-6-6--|
D|--7-7-7-7-7--7-7-7-7-7--5-5-5-5-5---6-6-6-6-6--|
    ...   .    ...   .    ...     .   ...   .
D|-----------------------------------------------|
A|-----------------------------------------------|
F|-----------------------------------------------|
C|------9---9------9---9------5---5-------4---4--|
G|--7-7-7-7-7--7-7-7-7-7--3-3-3-3-3---2-2-2-2-2--|
D|--7-7-7-7-7--7-7-7-7-7--3-3-3-3-3---2-2-2-2-2--|
    ...   .    ...   .    ...   .     ...   .

    4b) (2:19 - 2:30)
    3) [verse] x2 (2:31 - 2:54)
    4) [pre-chorus] (2:55 - 3:18)
    5) [chorus] x2 (3:18 - 3:44)
    4b) (3:44 - 3:54)

6) [outro] (3:54 - 5:12) 6a) (3:55 - 4:11) - hear the timing
D|------------------------------------------------|
A|------------------------------------------------|
F|----9-----9-----9-----9-----9-----9-----9--5-5--|
C|----9-----9-----9-----9-----9-----9-----9--5-5--|
G|----7-----7-----7-----7-----7-----7-----7--3-3--|
D|--0-0---0-0---0-0---0-0---0-0---0-0---0-0-------|
    .     .      .      .      .      .      .

here comes the 2nd guitar, which plays the next riff (6b)
once, simoultaneously with this 2nd part of 6a
D|-------------------------------------------------|
A|-------------------------------------------------|
F|----9-----9-----9-----9-----9-----9-----9--12-5--|
C|----9-----9-----9-----9-----9-----9-----9--12-5--|
G|----7-----7-----7-----7-----7-----7-----7--10-3--|
D|--0-0---0-0---0-0---0-0---0-0---0-0---0-0--------|
    .     .     .     .     .     .     .

6b) (4:11 - 4:18)
D|-----------------------------------------------|
A|-----------------------------------------------|
F|-----------------------------------------------|
C|--9-9----------------7-8-9-9-----9-------------|
G|--7-7----------------5-6-7-7-----7-------------|
D|--0-0-0-0-0-0---0-0----------0-0---0-0-0-0-0---|
        .......   ...          ...   .........
D|-------------------------------------|
A|-------------------------------------|
F|-------------------------------------|
C|--9-9----------------7-8-9-9----5-5--|
G|--7-7----------------5-6-7-7----3-3--|
D|--0-0-0-0-0-0---0-0------------------|
        .......   ...

6c) 2x (4:18 - 4:42)
D|-----------------------------------------------|
A|--------------------------------------------5--|
F|--4~----3h4p3---------------------------3-4----| G1
C|---------------5-4-2~-------------2-4-5--------|
G|-----------------------------------------------|
D|-----------------------------------------------|
 |                                  . . .        |
D|-----------------------------------------------|
A|-----------------------------------------------|
F|-----------------------------------------------| G2
C|--9-9----------------7-8-9-9-----9-------------|
G|--7-7----------------5-6-7-7-----7-------------|
D|--0-0-0-0-0-0---0-0----------0-0---0-0-0-0-0---|
        .......   ...          ...   .........
D|-------------------------------------|
A|-------------------------------------|
F|--4~--3h4p3-----3--------------------| G1
C|--------------5---5-4-2~------5--7---|
G|-------------------------------------|
D|-------------------------------------|
 |                                     |
D|-------------------------------------|
A|-------------------------------------|
F|-------------------------------------| G2
C|--9-9----------------7-8-9-9----5-5--|
G|--7-7----------------5-6-7-7----3-3--|
D|--0-0-0-0-0-0---0-0------------------|
        .......   ...
6a) till the end (4:43 - 5:12)

            
            
Suggest correction
Creating personal tab
Creating personal tab
You can edit any tab online and save it as your Personal.

You can edit, replace or remove any tab part or add personal notes – all changes will be seen only by you.

Personal tabs can be accessed anytime from any device, even offline.
Learn more »
Give kudos to tab author, rate the tab!
1 2 3 4 5
comments
print report bad tab
guest
You may want to rate the tab now too:
select rating
Wanna post a correction for this tab? Suggest correction