Oops, an error
Loading. Please wait.

Between Your Band And The Other Band bass

764 views 9 this week
no commentswrite comment
1 2 3 4 5
2 more votes to show rating
add to favorites
×
Save as Personal and add changes to this tab that will be seen only by you. Learn more ›
×
You can save this tab as Personal to edit and correct it or add notes. All changes will be seen only by you. Learn more »
launch autoscroll
font size
0
reset
guitar tuner
edit
Autoscroll
slow
fast
+/-
esc
set tempo
stop
Author
Difficulty
Intro:
0:00 (Intermission)- if you move up a string, you can play 2 and 5 instead. I like this more.
G------------------------------------------------------------------------------|
D------------------------------------------------------------------------------|
A---7--7---7-7-7---7-7-7---7-7-7---7---10--10---10-10-10---10-10-10---10-10-10-|
E------------------------------------------------------------------------------|

Lick- 0:11- Either play this to mimic the guitar lick, or continue with the intermission 
riff. Your pick.
G-16-16-16-19-19-19-16--16-19-19-16-16-19-19-x2 -16-16-16-14-14-14-12-11-11-11-12-12-12-|
D--------------------------------------------   ----------------------------------------|
A--------------------------------------------   ----------------------------------------|
E--------------------------------------------   ----------------------------------------|

0:21
G----------------------|
D----------------------|
A----------5-5-5-3-2---|
E-3---3-3-3----------3-|

0:23 (Intro Riff Part 1)
G---------------------------------------|
D-----------0-----------------0-0-0-----|
A-3---3-3-3---3-2-0----------------3-2--|
E-------------------3---3-3-3---------3-|

0:28 (Intro Riff Part 2)
G------------------------------------------|
D-----------0------------------------------|
A-3---3-3-3---3-2-0------------------------|
E-------------------3---3-3-3--3-3-3-0-0-3-|

0:23 again
0:28 again

Verse:
0:42 (Main Riff)- ALWAYS PLAY THIS TWICE
G---------------------------------------------------------------55-44-|
D----------------------------555-444-222222222222222-5555555555-------|
A-333333333333333-5555555555------------------------------------------|
E---------------------------------------------------------------------|

1:04 (Main Riff Closing)
G--------------------------------------|
D--------------------------------------|
A-333333333333333-5555--5--5--5--55555-|
E--------------------------------------|

Bridge:
1:09 (Main Bridge) Play this three times.
G-------------------------------------------------|
D-------------22-00-00----------------------------|
A----------------------22-------------3-1-3-1-3-5-|
E--0-0-0-0--0-------------3-3-3-3--3-----3---3----|

1:24/1:27 (Bridge Ending)
G------------------------------------|
D-------------22-00-00---------------|
A----------------------22------------|
E--0-0-0-0--0-------------3333333333-|

1:29 (Intermission)- Play intermission riff from beginning. Just sevens and tens, until 
“I’ll pass it off.”

1:45 "I'll pass it off..."
G-----------------------|
D--222222222-5555555555-|
A-----------------------|
E-----------------------|

Main Riff.
Main Riff Closing.
Main Bridge.
Bridge Ending.
Intermission.
Main Riff.
Main Riff again. (4 times in total).
Main Riff Closing.
Intermission a couple times.
Play the intro riffs until the song ends.

            
            
Suggest correction
Creating personal tab
Creating personal tab
You can edit any tab online and save it as your Personal.

You can edit, replace or remove any tab part or add personal notes – all changes will be seen only by you.

Personal tabs can be accessed anytime from any device, even offline.
Learn more »
Give kudos to tab author, rate the tab!
1 2 3 4 5
comments
print report bad tab
guest
You may want to rate the tab now too:
select rating
Wanna post a correction for this tab? Suggest correction