Oops, an error
Loading. Please wait.

Bullet tab

328 views 9 this week
no commentswrite comment
1 2 3 4 5
2 more votes to show rating
add to favorites
×
Save as Personal and add changes to this tab that will be seen only by you. Learn more ›
×
You can save this tab as Personal to edit and correct it or add notes. All changes will be seen only by you. Learn more »
launch autoscroll
font size
0
reset
how to read this tab
guitar tuner
edit
Autoscroll
slow
fast
+/-
esc
set tempo
stop
You can play either the 775 chord or a regular Em chord, Ben plays the one I used in the tab in the acoustic
version and it sounds a bit more open so I used that one, but it's really up to you.
i did a cover here, maybe it helps a bit: https://youtu.be/UBeEQVwpI30

[Intro/Verse]

Acoustic guitar
e|------------|----|------------------------------------------------|----|
B|--0-0-0-0-0-|----|-0-0-0-0-0--0-0-0-0-0---------------------------|----|
G|--0-0-0-0-0-|----|-0-0-0-0-0--0-0-0-0-0-----0-0-0-0-----0-0-0-0---|----|
D|--2-2-2-2-2-|-x4-|-2-2-2-2-2--2-2-2-2-2---5-5-5-5-5---4-4-4-4-4---|-x4-| x2
A|--3-3-3-3-3-|----|-3-3-3-3-3--3-3-3-3-3---7-7-7-7-7---5-5-5-5-5---|----|
E|--3-3-3-3-3-|----|-3-3-3-3-3--3-3-3-3-3---7-7-7-7-7---5-5-5-5-5---|----|

Electric guitar
e|-----------|------------------------------------------------|----|
B|------0~---|-0-0-0-0-0--0-0-0-0-0---------------------------|----|
G|------0~---|-0-0-0-0-0--0-0-0-0-0-----0-0-0-0-----0-0-0-0---|----|
D|------2~---|-2-2-2-2-2--2-2-2-2-2---5-5-5-5-5---4-4-4-4-4---|-x4-| 
A|------3~---|-3-3-3-3-3--3-3-3-3-3---7-7-7-7-7---5-5-5-5-5---|----|
E|------3~---|-3-3-3-3-3--3-3-3-3-3---7-7-7-7-7---5-5-5-5-5---|----|


[Chorus]

"All of this can fade away..."
e|--------------------------------------------------------------------------------------------|
B|--------------------------------------------------------------------------------------------|
G|---0-0-0-0----0-0-0-0----0-0-0-0----0-0-0-0--------------------------0-0-0-0----0-0-0-0-----|
D|-2-2-2-2-2--2-2-2-2-2--4-4-4-4-4--4-4-4-4-4--5-5-5-5-5--5-5-5-5-5--2-2-2-2-2--2-2-2-2-2-----| x2
A|-3-3-3-3-3--3-3-3-3-3--5-5-5-5-5--5-5-5-5-5--7-7-7-7-7--7-7-7-7-7--3-3-3-3-3--3-3-3-3-3-----|
E|-3-3-3-3-3--3-3-3-3-3--5-5-5-5-5--5-5-5-5-5--7-7-7-7-7--7-7-7-7-7--3-3-3-3-3--3-3-3-3-3-----|


Electric/acoustic (electric strums once, acoustic strums continuously)

"Right now you're happiest when you're alone..."
e|-----------------------------------------------------|
B|-------0~--------------------------------------------|
G|-------0~---0~--0~--0~--0~------------0~-------------|
D|-2-2-2-2~---5~--2~--5~--2~------------2~-------------|
A|-3-3-3-3~---7~--3~--7~--3~------------3~-------------|
E|-3-3-3-3~---7~--3---7~--3-------------3--------------|


[2nd Verse]

First only acoustic, then acoustic and electric guitar
e|------------|----|------------------------------------------------|----|
B|--0-0-0-0-0-|----|-0-0-0-0-0--0-0-0-0-0---------------------------|----|
G|--0-0-0-0-0-|----|-0-0-0-0-0--0-0-0-0-0-----0-0-0-0-----0-0-0-0---|----|
D|--2-2-2-2-2-|-x4-|-2-2-2-2-2--2-2-2-2-2---5-5-5-5-5---4-4-4-4-4---|-x4-|
A|--3-3-3-3-3-|----|-3-3-3-3-3--3-3-3-3-3---7-7-7-7-7---5-5-5-5-5---|----|
E|--3-3-3-3-3-|----|-3-3-3-3-3--3-3-3-3-3---7-7-7-7-7---5-5-5-5-5---|----|
 
                   "You are light from a fire..."
e|-----------|----|--------------------------------------------------------------------------------------|--|
B|-0-0-0-0-0-|----|-0-0-0-0-0-0-0-0-0-0----------------------------------------------0-0-0-0-0-0-0-0-0-0-|--|
G|-0-0-0-0-0-|----|-0-0-0-0-0-0-0-0-0-0----0-0-0-0----0-0-0-0----0-0-0-0----0-0-0-0--0-0-0-0-0-0-0-0-0-0-|--|
D|-2-2-2-2-2-|-x4-|-2-2-2-2-2-2-2-2-2-2--4-4-4-4-4--4-4-4-4-4--5-5-5-5-5--5-5-5-5-5--2-2-2-2-2-2-2-2-2-2-|x2|
A|-3-3-3-3-3-|----|-3-3-3-3-3-3-3-3-3-3--5-5-5-5-5--5-5-5-5-5--7-7-7-7-7--7-7-7-7-7--3-3-3-3-3-3-3-3-3-3-|--|
E|-3-3-3-3-3-|----|-3-3-3-3-3-3-3-3-3-3--5-5-5-5-5--5-5-5-5-5--7-7-7-7-7--7-7-7-7-7--3-3-3-3-3-3-3-3-3-3-|--|


[Chorus]

"All of this can fade away..."
e|--------------------------------------------------------------------------------------------|
B|--------------------------------------------------------------------------------------------|
G|---0-0-0-0----0-0-0-0----0-0-0-0----0-0-0-0--------------------------0-0-0-0----0-0-0-0-----|
D|-2-2-2-2-2--2-2-2-2-2--4-4-4-4-4--4-4-4-4-4--5-5-5-5-5--5-5-5-5-5--2-2-2-2-2--2-2-2-2-2-----| x2
A|-3-3-3-3-3--3-3-3-3-3--5-5-5-5-5--5-5-5-5-5--7-7-7-7-7--7-7-7-7-7--3-3-3-3-3--3-3-3-3-3-----|
E|-3-3-3-3-3--3-3-3-3-3--5-5-5-5-5--5-5-5-5-5--7-7-7-7-7--7-7-7-7-7--3-3-3-3-3--3-3-3-3-3-----|

"Right now you're happiest when you're alone..."
e|------------------------------------------------|
B|-------0~-------------------0-------------------|
G|-------0~---0~--0~--0~--0~--0~---0~----0~-------|
D|-2-2-2-2~---5~--2~--5~--4~--2~---4~----2~-------|
A|-3-3-3-3~---7~--3~--7~--5~--3~---5~----3~-------|
E|-3-3-3-3~---7~--3---7~--5---3~---5~----3--------|

(strum or let it ring, there are guitars layered that do both i believe)


[Outro]

Riff
e|----------------------------------------------------|
B|----0-0-0-0-----------------0-0-0-0-----0-0-0-0-----|
G|----0-0-0-0-----0-0-0-0-----0-0-0-0-----0-0-0-0-----|
D|--2-2-2-2-2---4-4-4-4-4---2-2-2-2-2---2-2-2-2-2-----| x4
A|--2-2-2-2-2---5-5-5-5-5---3-3-3-3-3---3-3-3-3-3-----|
E|--0-0-0-0-0---5-5-5-5-5---3-3-3-3-3---3-3-3-3-3-----|

Solo
e|--------------------------------------------------------------------------------| 
B|---10h12p10--8---8--10-8----10h12p10-8---13-12-10---10h12p10-8----15--12--10----| 
G|---------------9-----------------------9------------------------9---------------| 
D|--------------------------------------------------------------------------------| 
A|--------------------------------------------------------------------------------| 
E|--------------------------------------------------------------------------------|

e|-------------------------------------------------| 
B|---10h12p10--8----12--12-----12------------------| 
G|---------------9—-----14b16--14b16---------------| 
D|-------------------------------------------------| 
A|-------------------------------------------------| 
E|-------------------------------------------------|

e|---------------------------------------------------------------------------------| 
B|---10h12p10--8---8--10-8----10h12p10-8---13-12-10---10h12p10-8----15--12-(10)-12-| 
G|---------------9-----------------------9------------------------9----------------| 
D|---------------------------------------------------------------------------------| 
A|---------------------------------------------------------------------------------| 
E|---------------------------------------------------------------------------------|



************************************

| x   Dead note
| (n) Ghost note
| h   Hammer-on
| p   Pull-off
| r   Release
| b   Bend
| /   Slide up
| ~   Vibrato

************************************

            
            
Suggest correction
Creating personal tab
Creating personal tab
You can edit any tab online and save it as your Personal.

You can edit, replace or remove any tab part or add personal notes – all changes will be seen only by you.

Personal tabs can be accessed anytime from any device, even offline.
Learn more »
Give kudos to tab author, rate the tab!
1 2 3 4 5
comments
print report bad tab
guest
You may want to rate the tab now too:
select rating
Wanna post a correction for this tab? Suggest correction