Oops, an error
Loading. Please wait.

Cool tab

version 3
version 3

Whole song

711 views 1 this week
no commentswrite comment
1 2 3 4 5
1 last vote to show rating
add to favorites
×
Save as Personal and add changes to this tab that will be seen only by you. Learn more ›
×
You can save this tab as Personal to edit and correct it or add notes. All changes will be seen only by you. Learn more »
launch autoscroll
font size
0
reset
how to read this tab
guitar tuner
edit
Autoscroll
slow
fast
+/-
esc
set tempo
stop
Author
-------------------------------------------------------------------------------
                             Cool - Tigers Jaw
-------------------------------------------------------------------------------
Tabbed by: Tyler_Grace

This is based off of the Nervous Energies Session version.
Listen to the song to get the strumming pattern, it's rather easy.

[Intro]

e|-----------------3-----------------------3----|
B|-----------------0-----------------------0----|
G|-----------------0-----------------------0----|
D|--5----4----5----0--------4----5----2----0----| x2
A|--7----5----7----2--------5----7----3----2----|
E|--7----5----7----3--------5----7----3----3----|


[Verse]

"It's the shadowy whisper that brushes my leg..."
e|-----------------3-----------------------3----|
B|-----------------0-----------------------0----|
G|-----------------0-----------------------0----|
D|--5----4----5----0--------4----5----2----0----| 
A|--7----5----7----2--------5----7----3----2----|
E|--7----5----7----3--------5----7----3----3----|

e|-----------------3----|
B|-----------------0----|
G|-----------------0----|
D|--5----4----5----0----|
A|--7----5----7----2----|
E|--7----5----7----3----|


[Chorus 1]

"It's a cruel world, but it's cool..."
e|----x----0----0----|
B|----3----0----1----|
G|----2----0----0----|
D|----0----2----2----| x1
A|----0----2----3----|
E|---------x----3----|


[Chorus 2]

e|--x----0----0--0----|
B|--3----0----1--0----|
G|--0----0----0--0----|
D|--4----2----2--2----| x1
A|--5----2----3--3----|
E|--5----x----3--3----|


[Outro]

e|--x-------------0~----|
B|--3-------------1~----|
G|--0-------------0~----|
D|--4----5--4--5--2~----| x1
A|--5----7--5--7--3~----|
E|--5----7--5--7--3~----|
 

Intro
Verse
Chorus (1)
Verse 
Chorus (2)
Verse
Chorus (1)
Verse
Outro


************************************

| /   slide up
| \   slide down
| h   hammer-on
| p   pull-off
| ~   vibrato
| +   harmonic
| x   Mute note
| b   Bend
| pb  Pre-bend
| br  Bend release
| pbr Pre-bend release
| brb Bend release bend

************************************

            
            
Suggest correction
Creating personal tab
Creating personal tab
You can edit any tab online and save it as your Personal.

You can edit, replace or remove any tab part or add personal notes – all changes will be seen only by you.

Personal tabs can be accessed anytime from any device, even offline.
Learn more »
Give kudos to tab author, rate the tab!
1 2 3 4 5
comments
print report bad tab
guest
You may want to rate the tab now too:
select rating
Wanna post a correction for this tab? Suggest correction