Oops, an error
Loading. Please wait.

Always On My Mind tab

version 3
version 3

Whole song

3,062 views 1 this week
2 commentsread comments
1 2 3 4 5
x 3
add to favorites
×
Save as Personal and add changes to this tab that will be seen only by you. Learn more ›
×
You can save this tab as Personal to edit and correct it or add notes. All changes will be seen only by you. Learn more »
launch autoscroll
font size
0
reset
how to read this tab
guitar tuner
edit
Autoscroll
slow
fast
+/-
esc
set tempo
stop
Author
Hey guys!This is my tab for Always On My Mind(GREAT SONG).I excluded the second guitar
as this tab is for Tiki's solo guitar playing.I have seen many videos of him playing this
ALOT of times and explored the fretboard and this is what I came up with!I didn't
add the strum mutes so this tab could be simple to read(but you guys could
guess when they come into play) so I hope it's good!Please comment and rate!It would mean
alot!Have fun!

Cheers!
MyuziQ

UPDATE:
After getting a brand new acoustic(I used a classical before) and some awesome quality 
headphones,I rechecked this tab to make sure it was sounding right but instead,I find out 
it was wrong and was missing alot of details!!!!!!Sorry!!!!

So here's the 'updated' version!

( X=muted string.I don't think he plays the High e and Low E )

INTRO

|--------------------------------------------|
|--10-10-10-10---10--9-----------9--9-9-9----|
|--11-11-11-11---------11-9------9--9-9-9----|
|--11-11-11-11--------------11---9--9-9-9----|
|--9-----------------------------7-----------|
|--------------------------------------------|

|--X---X--X-----X--X-X----X--X-X----X-X--X-X---|
|--10--10-10----9--9-9----7--7-7----7-7--9-9---|
|--11--11-11----9--9-9----7--7-7----7-7--9-9---|
|--11--11-11----9--9-9----9--9-9----7-7--9-9---|
|--9---9--9-----7--7-7----9--9-9----5-5--7-7---|
|--X---X--X-----X--X-X----X--X-X----X-X--X-X---|

|--X---X--X-----X----X--X-X----X-X--X-X---|
|--10--10-10----9----7--7-7----7-7--9-9---|
|--11--11-11----9----7--7-7----7-7--9-9---|
|--11--11-11----9----9--9-9----7-7--9-9---|
|--9---9--9-----7----9--9-9----5-5--7-7---|
|--X---X--X-----X----X--X-X----X-X--X-X---|

VERSE 1(Played 4 times)

|--X---X--X-----X--X-X----X--X-X----X-X--X-X---|
|--10--10-10----9--9-9----7--7-7----7-7--9-9---|
|--11--11-11----9--9-9----7--7-7----7-7--9-9---|
|--11--11-11----9--9-9----9--9-9----7-7--9-9---|
|--9---9--9-----7--7-7----9--9-9----5-5--7-7---|
|--X---X--X-----X--X-X----X--X-X----X-X--X-X---|

CHORUS 1

|--X--X-X----X--X-X----X--X-X----X--X-X---|--X--X-X----X--X-X----X--X-X----X--X---|
|--7--7-7----7--7-7----5--5-5----3--3-3---|--7--7-7----7--7-7----5--5-5----3--3---|
|--8--8-8----7--7-7----6--6-6----4--4-4---|--8--8-8----7--7-7----6--6-6----4--4---|
|--9--9-9----7--7-7----7--7-7----5--5-5---|--9--9-9----7--7-7----7--7-7----5--5---|
|--9--9-9----5--5-5----7--7-7----5--5-5---|--9--9-9----5--5-5----7--7-7----5--5---|
|--X--X-X----X--X-X----X--X-X----X--X-X---|--X--X-X----X--X-X----X--X-X----X--X---|

SOLO

|------------------|----------------|--------------------------------------|
|--10-10-10-9------|--9--9-9--------|--------------------------------------|
|--11----------11--|--9-------11-9--|--------9--11--9----------------------|
|--11--------------|--9-------------|--11-12-----------12--11--9--12--11---|
|------------------|----------------|--------------------------------------|
|------------------|----------------|--------------------------------------|

|------------------|-------------------|-------------------------------------|
|--10-10-10-9------|--9--9-9-------10--|-----9-10--12--10--9------9----------|
|--11----------11--|--9-------11-9-----|--11------------------11-----9--11---|
|--11--------------|--9----------------|-------------------------------------|
|------------------|-------------------|-------------------------------------|
|------------------|-------------------|-------------------------------------|

VERSE 2(Played 4 times)

|--X---X--X-----X--X-X----X--X-X----X-X--X-X---|
|--10--10-10----9--9-9----7--7-7----7-7--9-9---|
|--11--11-11----9--9-9----7--7-7----7-7--9-9---|
|--11--11-11----9--9-9----9--9-9----7-7--9-9---|
|--9---9--9-----7--7-7----9--9-9----5-5--7-7---|
|--X---X--X-----X--X-X----X--X-X----X-X--X-X---|

CHORUS 2

|--X--X-X----X--X-X----X--X-X----X--X-X---|--X--X-X----X--X-X----X--X-X----X--X---|
|--7--7-7----7--7-7----5--5-5----3--3-3---|--7--7-7----7--7-7----5--5-5----3--3---|
|--8--8-8----7--7-7----6--6-6----4--4-4---|--8--8-8----7--7-7----6--6-6----4--4---|
|--9--8-8----7--7-7----7--7-7----5--5-5---|--9--9-9----7--7-7----7--7-7----5--5---|
|--9--9-9----5--5-5----7--7-7----5--5-5---|--9--9-9----5--5-5----7--7-7----5--5---|
|--X--X-X----X--X-X----X--X-X----X--X-X---|--X--X-X----X--X-X----X--X-X----X--X---|

OUTRO

|--X---X--X-----X--X-X----X--X-X----X-X--X-X---|
|--10--10-10----9--9-9----7--7-7----7-7--9-9---|
|--11--11-11----9--9-9----7--7-7----7-7--9-9---|
|--11--11-11----9--9-9----9--9-9----7-7--9-9---|
|--9---9--9-----7--7-7----9--9-9----5-5--7-7---|
|--X---X--X-----X--X-X----X--X-X----X-X--X-X---|

|--X---X--X-----X----X--X-X----X-X--X-X--------|
|--10--10-10----9----7--7-7----7-7--9-9--------|
|--11--11-11----9----7--7-7----7-7--9-9--------|
|--11--11-11----9----9--9-9----7-7--9-9--------|
|--9---9--9-----7----9--9-9----5-5--7-7--------|
|--X---X--X-----X----X--X-X----X-X--X-X--------|

|--X---X--X-----X--X-X----X--X-X----X-X--X-X---|
|--10--10-10----9--9-9----7--7-7----7-7--9-9---|
|--11--11-11----9--9-9----7--7-7----7-7--9-9---|
|--11--11-11----9--9-9----9--9-9----7-7--9-9---|
|--9---9--9-----7--7-7----9--9-9----5-5--7-7---|
|--X---X--X-----X--X-X----X--X-X----X-X--X-X---|

|--X---X--X-----X----X--X-X----X-X--X-X----X-----|
|--10--10-10----9----7--7-7----7-7--9-9----10----|
|--11--11-11----9----7--7-7----7-7--9-9----11----|
|--11--11-11----9----9--9-9----7-7--9-9----11----|
|--9---9--9-----7----9--9-9----5-5--7-7----9-----|
|--X---X--X-----X----X--X-X----X-X--X-X----X-----|

            
            
Suggest correction
Creating personal tab
Creating personal tab
You can edit any tab online and save it as your Personal.

You can edit, replace or remove any tab part or add personal notes – all changes will be seen only by you.

Personal tabs can be accessed anytime from any device, even offline.
Learn more »
Give kudos to tab author, rate the tab!
1 2 3 4 5
comments
print report bad tab
2 comments total.
0 reply
keko_taco 10 Nov 10, 2010 10:27 PM

yeah the tabb worked really well!! thanks its better then any other tabb. from ash x (AKA Keko taco)

0 reply
jaffassssss 10 Nov 09, 2017 01:31 AM

Im a kiwi and love this song! Thanks bro!

guest
You may want to rate the tab now too:
select rating
Wanna post a correction for this tab? Suggest correction