Oops, an error
Loading. Please wait.

Shes Drunk All The Time chords

7,181 views 51 this week
1 commentread comment
1 2 3 4 5
x 9
add to favorites
×
Save as Personal and add changes to this tab that will be seen only by you. Learn more ›
×
You can save this tab as Personal to edit and correct it or add notes. All changes will be seen only by you. Learn more »
launch autoscroll
font size
0
reset
transpose
0
reset
simplify chords
display chords
guitar tuner
edit
Autoscroll
slow
fast
+/-
esc
set tempo
stop
Strumming
There is no strumming pattern for this song yet. and get +5 IQ
Intro
E E A E B7 E x2

Chorus
E
My girl likes to drink whiskey

My girl likes to drink wine
A                                       E
My girl likes to drink beer and scotch, bourbon and moonshine
B7                       E
Yes, I love my baby, but she's drunk all the time

Verse 1
E
When the night is early, she's drinking out of her glass
A                              E
As the night progresses, she's drinking out of her flask
B7                             E
My friend says I'm crazy, they says that this won't last

Chorus
E
My girl likes to drink whiskey

My girl likes to drink wine
A                                       E
My girl likes to drink beer and scotch, bourbon and moonshine
B7                       E
Yes, I love my baby, but she's drunk all the time

Break
E E A E B7 E

Verse 2
E
When she's high, she's high, when she's low, she's low
A                                    E
Ain't got no middle ground til she's passed out on the floor
B7                             E
When she wakes in the morning, all she wants is more

Chorus
E
My girl likes to drink whiskey

My girl likes to drink wine
A                                       E
My girl likes to drink beer and scotch, bourbon and moonshine
B7                       E
Yes, I love my baby, but she's drunk all the time

Break
E E A E B7 E

Verse 3
E
When the night is early, she's drinking out of her glass
A                              E
As the night progresses, she's drinking out of her flask
B7                             E
My friend says I'm crazy, they says that this won't last

Chorus
E
My girl likes to drink whiskey

My girl likes to drink wine
A                                       E
My girl likes to drink beer and scotch, bourbon and moonshine
B7                       E
Yes, I love my baby, but she's drunk all the time

Outro
E E A E B7 E x 2

            
            
Suggest correction
Creating personal tab
Creating personal tab
You can edit any tab online and save it as your Personal.

You can edit, replace or remove any tab part or add personal notes – all changes will be seen only by you.

Personal tabs can be accessed anytime from any device, even offline.
Learn more »
comments
print report bad tab
1 comment total.
0 reply
szweden.offic 111 Mar 08, 2015 10:54 PM


only accordion part i guessed
e------------------------------------------------------------------------
B------------------------------------------------------------------------
G-----------------------------------------------12-----------------------
D--12--14---14----14-------12---14----14----14-----14--12--14--12--------
A------------------------------------------------------------------------
E------------------------------------------------------------------------

e------------------------------------------------------------------------
B------------------------------------------------------------------------
G-----------------------------------------------11-----------------------
D--11--13---13----13-------11---13----13----13-----13--11--13--11--------
A------------------------------------------------------------------------
E------------------------------------------------------------------------

guest
You may want to rate the tab now too:
select rating
Wanna post a correction for this tab? Suggest correction