Oops, an error
Loading. Please wait.

Pretty Pink Tractor solo tab

961 views 3 this week
1 commentread comment
1 2 3 4 5
2 more votes to show rating
add to favorites
×
Save as Personal and add changes to this tab that will be seen only by you. Learn more ›
×
You can save this tab as Personal to edit and correct it or add notes. All changes will be seen only by you. Learn more »
launch autoscroll
font size
0
reset
how to read this tab
guitar tuner
edit
Autoscroll
slow
fast
+/-
esc
set tempo
stop
Intro:                      b-bend: rb-release bend: r-release

E-------------------------------------------------------------E
B----------12-------------------------------------------------B
G-9-11b-11b--11rb-9-11-9-11-9-11b-11rb-9-11-9------------9----G
D--------------------------------------------11-9-11-9-11--11-D
A-------------------------------------------------------------A
E-------------------------------------------------------------E




Intro to the second verse:
(A lot like the first intro)

E----------------------------------------E
B----------12---------12b-12rb-----------B
G-9-11b-11b--11rb-9-11--------11b-11rb-9-G
D----------------------------------------D
A----------------------------------------A
E----------------------------------------E




Solo 
(I'm not to sure bout the last part of the solo but this is the way I hear it)

(1st part)
E-0-4r-0-5r-0-7r-0-5r-0-4r-0-4r-0-5r-0-7r-0-5r-0-4r-0-E
B-----------------------------------------------------B
G-----------------------------------------------------G
D-----------------------------------------------------D
A-----------------------------------------------------A
E-----------------------------------------------------E


(Middle part)
E-0-11r-0-12r-0-14r-0-12r-0-11r-0-12r-0-14-E
B------------------------------------------B
G------------------------------------------G
D------------------------------------------D
A------------------------------------------A
E------------------------------------------E


(Last part)
E-----------------------9-12-9--------------------E
B-------------------9-12------12-9----------------B
G---------------9-11---------------11-11b-11rb-9--G
D-----------9-11----------------------------------D
A----7-9s-11--------------------------------------A
E-7-9---------------------------------------------E

            
            
Suggest correction
Creating personal tab
Creating personal tab
You can edit any tab online and save it as your Personal.

You can edit, replace or remove any tab part or add personal notes – all changes will be seen only by you.

Personal tabs can be accessed anytime from any device, even offline.
Learn more »
Give kudos to tab author, rate the tab!
1 2 3 4 5
comments
print report bad tab
1 comment total.
0 reply
625423 10 3 days ago

s= slide from last
intro
E---------------------------------------------------------------------
B------------12-------------------------------------------------------
G-9-13s-13------13-11-9-11-----9-13s-13-11-9-11-9-----------9-11-9----
D------------------------------------------------11-9----11--------11b
A---------------------------------------------------------------------
E---------------------------------------------------------------------

intro to second verse
E---------------------------------------------------------------------
B------------12-------------12-12-------------------------------------
G-9-13s-13-----13-11-9-11---------13-11-9-----------------------------
D---------------------------------------------------------------------
A---------------------------------------------------------------------
E---------------------------------------------------------------------

the first part of the solo
E-4-0-5-0-7-0-5-0-4-0-5-0-7-0-5---------------------------------------
B---------------------------------------------------------------------
G---------------------------------------------------------------------
D---------------------------------------------------------------------
A---------------------------------------------------------------------
E---------------------------------------------------------------------

second part of solo
E-11-0-12-0-13-0-12-0-11-0-12-0-13b-----------------------------------
B---------------------------------------------------------------------
G---------------------------------------------------------------------
D---------------------------------------------------------------------
A---------------------------------------------------------------------
E---------------------------------------------------------------------

the last part was fine
this guitar tab was helpful but was slightly flawed, hope this helps

guest
Wanna post a correction for this tab? Suggest correction