Oops, an error
Loading. Please wait.

Happy Day tab

version 1
version 1

Whole song

Interactive

85,293 views 18 this week
8 commentsread comments
1 2 3 4 5
x 17
add to favorites
×
Save as Personal and add changes to this tab that will be seen only by you. Learn more ›
×
You can save this tab as Personal to edit and correct it or add notes. All changes will be seen only by you. Learn more »
launch autoscroll
font size
0
reset
how to read this tab
guitar tuner
edit
Autoscroll
slow
fast
+/-
esc
set tempo
stop
Author
Difficulty
Happy Day - Tim Hughes

[Intro]

e|----------------------------------------------------------------|
B|-8-8-8-8-8-8-8-8-8-6-6-6-6-6-6-6-6-5-5-5-5-5-5-5-5-6-6-6-6-6----|
G|-5-5-5-5-5-5-5-5-5-5-5-5-5-5-5-5-5-5-5-5-5-5-5-5-5-5-5-5-5-5----|
D|----------------------------------------------------------------|
A|----------------------------------------------------------------|
E|------------------------------------------------------------0-0-|
                                 **

e|-----------------------------------------------------------------|
B|-8-8-8-8-8-8-8-8-8-6-6-6-6-6-6-6-6-5-5-5-5-5-5-5-5-6-6-6-6-6-6-6-|
G|-5-5-5-5-5-5-5-5-5-5-5-5-5-5-5-5-5-5-5-5-5-5-5-5-5-5-5-5-5-5-5-5-|
D|-----------------------------------------------------------------|
A|-----------------------------------------------------------------|
E|-----------------------------------------------------------------|


[Verse]

e|------------|-----|---8—-8----|---|
B|--5h8-5h8---|-----|--8—-8-----|---|
G|-5---5---55-|-----|-5—-5—-555-|---|
D|------------|-----|-----------|---|
A|------------|-x16-|-----------|x2-|
E|------------|-----|-----------|---|
   x   x   xx


[Chorus]

e|-----------------------------------------------------------------|-----|
B|-8-8-8-8-8-8-8-8-8-6-6-6-6-6-6-6-6-5-5-5-5-5-5-5-5-6-6-6-6-6-6-6-|-----|
G|-5-5-5-5-5-5-5-5-5-5-5-5-5-5-5-5-5-5-5-5-5-5-5-5-5-5-5-5-5-5-5-5-|-----|
D|-----------------------------------------------------------------|-----|
A|-----------------------------------------------------------------|-x-2-|
E|-----------------------------------------------------------------|-----|


[Interlude]

Guitar 1:
e|-----------------------------------------------------------------|-----|
B|-8-8-8-8-8-8-8-8-8-6-6-6-6-6-6-6-6-5-5-5-5-5-5-5-5-6-6-6-6-6-6-6-|-----|
G|-5-5-5-5-5-5-5-5-5-5-5-5-5-5-5-5-5-5-5-5-5-5-5-5-5-5-5-5-5-5-5-5-|-----|
D|-----------------------------------------------------------------|-----|
A|-----------------------------------------------------------------|-x-2-|
E|-----------------------------------------------------------------|-----|

Guitar 2: x2
e|-------------12-12-------------12-12-13-13-------|
B|-13-13-15-15-------13-13-15-15-------------15-15-|
G|-------------------------------------------------|
D|-------------------------------------------------|
A|-------------------------------------------------|
E|-------------------------------------------------|

e|-------------12-12-------------------------------|
B|-13-13-15-15-------13-13-12-12-12-12-12-12-12-12-|
G|-------------------------------------------------|
D|-------------------------------------------------|
A|-------------------------------------------------|
E|-------------------------------------------------|


[Verse]

e|------------|-----|---8—-8----|---|
B|--5h8-5h8---|-----|--8—-8-----|---|
G|-5---5---55-|-----|-5—-5—-555-|---|
D|------------|-----|-----------|---|
A|------------|-x16-|-----------|x2-|
E|------------|-----|-----------|---|
   x   x   xx


[Chorus]

e|-----------------------------------------------------------------|-----|
B|-8-8-8-8-8-8-8-8-8-6-6-6-6-6-6-6-6-5-5-5-5-5-5-5-5-6-6-6-6-6-6-6-|-----|
G|-5-5-5-5-5-5-5-5-5-5-5-5-5-5-5-5-5-5-5-5-5-5-5-5-5-5-5-5-5-5-5-5-|-----|
D|-----------------------------------------------------------------|-----|
A|-----------------------------------------------------------------|-x-2-|
E|-----------------------------------------------------------------|-----|

e|----------------------------------------------------------------------------------------|
B|-1-3~~~1-5\12~~~1-0/13~~~1-3-1-3-1-3-1-3-1-3-1-3-1-3-1-3-1-3-1-3-1-3-1-3-1-3-1-3-1-3-1-3|
G|----------------------------------------------------------------------------------------|
D|----------------------------------------------------------------------------------------|
A|----------------------------------------------------------------------------------------|
E|----------------------------------------------------------------------------------------|

e|-------------------------1-5-1-5-1-5-1-5-1-5-1-5-1-5-1-5-1-5-1-5-1-5-1-5-1-5-1-5-1-5-1-5|
B|-1-3~~~1-5\12~~~1-0/13~~~---------------------------------------------------------------|
G|----------------------------------------------------------------------------------------|
D|----------------------------------------------------------------------------------------|
A|----------------------------------------------------------------------------------------|
E|----------------------------------------------------------------------------------------|

e|-----------------------------------------------------------------|-----|
B|-8-8-8-8-8-8-8-8-8-6-6-6-6-6-6-6-6-5-5-5-5-5-5-5-5-6-6-6-6-6-6-6-|-----|
G|-5-5-5-5-5-5-5-5-5-5-5-5-5-5-5-5-5-5-5-5-5-5-5-5-5-5-5-5-5-5-5-5-|-----|
D|-----------------------------------------------------------------|-----|
A|-----------------------------------------------------------------|-x-2-|
E|-----------------------------------------------------------------|-----|

e|----------------------------------------------------------------------------------------|
B|-1-3~~~1-5\12~~~1-0/13~~~1-3-1-3-1-3-1-3-1-3-1-3-1-3-1-3-1-3-1-3-1-3-1-3-1-3-1-3-1-3-1-3|
G|----------------------------------------------------------------------------------------|
D|----------------------------------------------------------------------------------------|
A|----------------------------------------------------------------------------------------|
E|----------------------------------------------------------------------------------------|

e|-------------------------1-5-1-5-1-5-1-5-1-5-1-5-1-5-1-5-1-5-1-5-1-5-1-5-1-5-1-5-1-5-1-5|
B|-1-3~~~1-5\12~~~1-0/13~~~---------------------------------------------------------------|
G|----------------------------------------------------------------------------------------|
D|----------------------------------------------------------------------------------------|
A|----------------------------------------------------------------------------------------|
E|----------------------------------------------------------------------------------------|



Guitar 1:
e|-----------------------------------------------------------------|-----|
B|-8-8-8-8-8-8-8-8-8-6-6-6-6-6-6-6-6-5-5-5-5-5-5-5-5-6-6-6-6-6-6-6-|-----|
G|-5-5-5-5-5-5-5-5-5-5-5-5-5-5-5-5-5-5-5-5-5-5-5-5-5-5-5-5-5-5-5-5-|-----|
D|-----------------------------------------------------------------|-----|
A|-----------------------------------------------------------------|-x-2-|
E|-----------------------------------------------------------------|-----|

e|-------------------------|
B|-6-6-6-6-5-5-5-5---------|
G|-5-5-5-5-5-5-5-5---------|
D|-5-5-5-5-5-5-5-5-5~~~~~~-|
A|-5-5-5-5-5-5-5-5-5~~~~~~-|
E|-3-3-3-3-3-3-3-3-3~~~~~~-|


Guitar 2:
e|-------------12-12-------------12-12-13-13-------|
B|-13-13-15-15-------13-13-15-15-------------15-15-|
G|-------------------------------------------------|
D|-------------------------------------------------|
A|-------------------------------------------------|
E|-------------------------------------------------|

e|-------------12-12-------------------------------|
B|-13-13-15-15-------13-13-12-12-12-12-12-12-12-12-|
G|-------------------------------------------------|
D|-------------------------------------------------|
A|-------------------------------------------------|
E|-------------------------------------------------|

e|-------------12-12-------------12-12-13-13-------|
B|-13-13-15-15-------13-13-15-15-------------15-15-|
G|-------------------------------------------------|
D|-------------------------------------------------|
A|-------------------------------------------------|
E|-------------------------------------------------|

e|-------------12-12-------------------------------|
B|-13-13-15-15-------13-13-12-12-12-12-12-12-12-12-|
G|-------------------------------------------------|
D|-------------------------------------------------|
A|-------------------------------------------------|
E|-------------------------------------------------|

e|-13-13-13-13-13-12-12-12-12---------|
B|----------------------------13~~~~~-|
G|------------------------------------|
D|------------------------------------|
A|------------------------------------|
E|------------------------------------|


************************************

| x  Dead note
| h  Hammer-on
| /  Slide up
| \  Slide down
| ~  Vibrato

************************************

            
            
Suggest correction
Creating personal tab
Creating personal tab
You can edit any tab online and save it as your Personal.

You can edit, replace or remove any tab part or add personal notes – all changes will be seen only by you.

Personal tabs can be accessed anytime from any device, even offline.
Learn more »
comments
print report bad tab
8 comments total. Showing first comments.
-2 reply
zacwiens 41 Apr 08, 2008 03:50 PM

it is a very bad tab
the intro is wrong
the verse and chourus r sort of right

+1 reply
normajean19 10 Jun 22, 2009 01:02 PM

The intro is right

+1 reply
ObsoleteOne 10 Nov 23, 2009 04:48 PM

its pretty good actually.

guest
You may want to rate the tab now too:
select rating
Wanna post a correction for this tab? Suggest correction