Oops, an error
Loading. Please wait.

Hot Dreams album chords

version 1
version 1

Album

Whole song

811 views 3 this week
no commentswrite comment
1 2 3 4 5
2 more votes to show rating
add to favorites
×
Save as Personal and add changes to this tab that will be seen only by you. Learn more ›
×
You can save this tab as Personal to edit and correct it or add notes. All changes will be seen only by you. Learn more »
launch autoscroll
font size
0
reset
transpose
0
reset
simplify chords
display chords
guitar tuner
edit
Autoscroll
slow
fast
+/-
esc
set tempo
stop
Author
Difficulty
newg [tm] 50,144
intermediate
Strumming
There is no strumming pattern for this song yet. and get +5 IQ
~~~~~~~~~~~~~~~~~~~~~~~~~~~~~~~~~~~~~~~~~~~~~~~~~~~~~~~~~~~~~~~~~~~~~~~~~~~~~~~~~~~~~~~~~~~
|                                                                                         |
|     ******************                                                                  |
|    *   Timber Timbre  *                                                                 |
|     ******************                                                                  |
|                                                                                         |
|                                                                                         |
|                   Hot Dreams    (2014)                                                  |
|                 --------------                                                          |
|                                                                                         |
|                                                                                         |
|                                                                                         |
| E-mail: gwendal.mollo@orange.fr                                                         |
| Tabbed by: newg    (http://profile.ultimate-guitar.com/newg/)                           |
|                                                                                         |
|                                                                                         |
~~~~~~~~~~~~~~~~~~~~~~~~~~~~~~~~~~~~~~~~~~~~~~~~~~~~~~~~~~~~~~~~~~~~~~~~~~~~~~~~~~~~~~~~~~~

Tracklist :


    "Beat the Drum Slowly"  
    "Hot Dreams" 
    "Curtains!?"  
    "Bring Me Simple Men"  
    "Resurrection Drive, Part II"  *
    "Grand Canyon"  
    "This Low Commotion"  
    "The New Tomorrow"  
    "Run From Me"  
    "The Three Sisters"  *



* : Instrumental 

NOTE : The band play (at least live) with a baritone guitar (BEADGbB) for some songs.
The transcription is for normal tuning. You can transpose -7 if you use this kind of tuning.

                  ~~~~~~~~~~~~~~~~~~~~~~~~~~~~~~~~~~~~



-------------------------------------------------------------------------------
                            Timber Timbre - Beat The Drum Slowly  
-------------------------------------------------------------------------------

Album : Hot Dreams (2014)
Tempo : 82
E-mail: gwendal.mollo@orange.fr
Tabbed by: newg

Chords E6 : 022120

Capo I       


Fm

                E            E6
deco tower, rainbow fountain showers
                 C#m            Cm 
Crystal columns, silver tabloid entry.
    F#        Fm
the celebrity cemetery

                    E          E6
 a faded trail of a golden age
                        C#m       Cm 
that flickered out into celluloid ashes
F#        Fm
phantasms fantastic.

[Chorus]
            E
Outran the avalanche 
            Fm
Outran the avalanche 
            E
Outran the avalanche 
       C#m     Cm 
to The cameras rolling
   F#            Fm
we beat the drum slowly  

[Break] 
G#5 G#5 D5 [D5]x4 [D5]x4 [D5]x4      \ Play 2 times
C#5 C#5 C5  [C5]x4  [C5]x4  [C5]x4   / 
G#5 G#5

Fm
                       E              E6
the family jewels, the swimming pool
                C#m     Cm   
Yards marked by emerald coffins
   F#           Fm
we heard crimes often and softly
                    E             E6
a mystery mist, new systems shift
                       C#m        Cm   
things recognized from television channels
          F#       Fm
nostalgia signals, unscrambled


[Chorus]
Break (repeat many times)

G#5 G#5 Dm





                  ~~~~~~~~~~~~~~~~~~~~~~~~~~~~~~~~~~~~



-------------------------------------------------------------------------------
                             Timber Timbre - Hot Dreams
-------------------------------------------------------------------------------

Album : Hot Dreams (2014)
Tempo : 
E-mail: 
Tabbed by: mrsfeatherbotto


A
   I wanna dance, I wanna dance, I wanna dance
            Dmaj7
   With a black woman
A
   I wanna still, I wanna still
            Dmaj7
   I wanna still my mind
A
   And I want a chance, I want a chance
      Dmaj7
   I want another chance
A
   To distill
         Dmaj7
   To distill that time


E
   And I wanna write, I wanna write, I wanna write
        A              Dmaj7
   To someone so true
E
   I wanna wake, I wanna wake, I wanna wake
        A                         Dmaj7
   From hot dreams, hot dreams of you


        A
   Oh, hot dreams
     Dmaj7
   (hot dreams)
     A
   .....
     Dmaj7
   (hot dreams)


A
   I wanna rise, I wanna rise
             Dmaj7
   I wanna rise up beside you
A
   I want to be, I want to be
             Dmaj7
   I want to be a champion in your eyes
A
   I wanna follow through, follow through
       Dmaj7
   On all my promises and threats to you, babe
A
   Hot streams, hot streams
         Dmaj7
   Will fork and divide, fork and divide


E
   I wanna take, I wanna take
         A           Dmaj7
   Take all of your air
E
   I wanna find, I wanna find, I wanna find
     A                        Dmaj7
   Another daydream, another nightmare 
E
   I wanna lie, I wanna lie, I wanna lie
           A            Dmaj7
   Lie me down in your stream
E
   I wanna wake, I wanna wake, I wanna wake
         Dmaj7          
   From hot dreams


            A
   I wanna wake from hot dreams of you, babe
     Dmaj7
   (hot dreams)
            A
   I wanna wake from hot dreams of you, babe
     Dmaj7
   (hot dreams)


OUTRO

Continue verse/chorus progression, with increasing stabs 
at the end of each measure w/ sax & drums (2 the first time, 
3 the second, etc. until song ends on 7 stabs).




                  ~~~~~~~~~~~~~~~~~~~~~~~~~~~~~~~~~~~~




-------------------------------------------------------------------------------
                              Timber Timbre - Curtains!?
-------------------------------------------------------------------------------

Album : Hot Dreams (2014)
Tempo : 115
E-mail: gwendal.mollo@orange.fr
Tabbed by: newg


Play this riff all over the song :        Riff 2
   Gm
e|-------------------|                    |-----------x--|
B|-------------------|                    |-----------x--|
G|-------------------|                    |--------------|
D|------5-------5----|                    |--------------|
A|-------------------|                    |--------------|
E|-3-(3)----3-3------|                    |-3---3-3------| 

Gm

Dm Cm Em Gm

Gm
Picture me a magazine
Empty the night
No there isn't much redeeming
About this dawn and breaking light
A#                        Dm
Curtains, I could have it all
    Gm
The window, the view, the second story fall

Dm Cm Em Gm

Gm
Creased and doubled up
Hung out on the tracks
She said a diamond wouldn't hurt
and that I should have rolled a deck
Dm                   Cm
Curtains, on a quiet side
Gm
Curtains can conceal what it is they were to hide

Dm Cm Em Gm

Gm (Riff 2)

Dm Cm Em Gm

Gm




                  ~~~~~~~~~~~~~~~~~~~~~~~~~~~~~~~~~~~~



-------------------------------------------------------------------------------
                         Timber Timbre - Bring Me Simple Men
-------------------------------------------------------------------------------

Album : Hot Dreams (2014)
Tempo : 80
E-mail: 
Tabbed by: newg and doodoodoom

Originally this song is play with a baritone guitar (BEADGbB)
If you want to play like him with the correct tuning, transpose -7.
This is for normal tuning. 

Intro
e|-4-----4-----4-----4----|--7-----7-----7-----7---|
B|----6-----6-----6-------|-----7-----7-----7------|
G|------------------------|------------------------|
D|------------------------|------------------------|
A|------------------------|------------------------|
E|------------------------|------------------------| x2


Second Riff
e|-8-----8-----8-----8-------|--6-----6-----6-----6---|
B|----8-----8-----8----------|-----7-----7-----7------|
G|---------------------------|------------------------|
D|---------------------------|------------------------|
A|---------------------------|------------------------|
E|---------------------------|------------------------| x4


Chorus :
e|----------------------------------------------|
B|----------------------------------------------|
G|----------------------------------------------|
D|--6--------8--------9-----4-------------------|
A|--------------------------------6-------------|
E|----------------------------------------------|


Violin part
e|-----11-------7-|
B|--9--------9----|
G|----------------|
D|----------------|
A|----------------|
E|----------------|

Intro : Play the riff x2
Fm  B


Fm                        B
  Welcome back, my better brother
Fm                             B
  Shake hard and take the upper-hand
Fm                       B 
  And may it never be forgotten
Fm                       B
  Who here is the better man
C                            F#
  But there's no competition, buddy
C                              F#
  And while it doesn't need to hurt
C                        F#
  You can keep the motor running
C                      F#
  I'll unload into the dirt

         Fm            B  
Bring me simple men 
        Fm            B
Free of pride
       Fm            B
I like simple men 
         Fm          B
True and tried

C   F#

Fm                       B
  Take a lesson here from Abel
Fm                         B
  Leave your swagger by the way
Fm                     B
  There's an element unstable
Fm                      B
  That your confidence betrays
C                     F#
  Every big shot is a hunter
C                        F#
  Every hunter's got his prey
C                       F#
  You can tell me I'm a good sport
C                          F#
  But that doesn't make me game

         Fm            B  
Bring me simple men 
        Fm            B
Free of pride
       Fm            B
I like simple men 
         Fm          B
True and tried
       C              F#
Just a simple friend 
       C              F#
I like simple men
         C            F#
Bring me simple me

C     F#





                  ~~~~~~~~~~~~~~~~~~~~~~~~~~~~~~~~~~~~




-------------------------------------------------------------------------------
                             Timber Timbre - Grand Canyon
-------------------------------------------------------------------------------

Album : Hot Dreams (2014)
Tempo : 90
E-mail: gwendal.mollo@orange.fr
Tabbed by: newg / dietsquish

C can be play with C/G

Intro Bass :
G|-------------|
D|-------------|
A|-------------|
E|--8---8-8----|


Solo :

  C                                   
e|------------------|------------------|
B|------------------|------------------|
G|------------------|------------------|
D|-----------3--2---|-----------3-3-2--|
A|-----3--5---------|-----3--5---------|
E|-3-3--------------|-3-3--------------|

   G                                  
e|-3-----------------|------------------|
B|-3-----------------|------------------|
G|-4-----------------|------------------|
D|-5----------3-3-2--|-----------3-3-2--|
A|-5-----3--5--------|-----3--5---------|
E|-3-3-3-------------|-3-3--------------|

  F                                   
e|-1-----------------|------------------|
B|-1-----------------|------------------|
G|-2-----------------|------------------|
D|-3----------3-3-2--|-----------3-3-2--|
A|-3-----3--5--------|-----3--5---------|
E|-1-1-1-------------|-1-1--------------|




C

C
From the Phoenix liftoff        
                            G
Somewhere over Blackfoot reserve

High above Drumheller
                           F
Sky hostess starts to serve

Cloud shadows on the mountain
                                  C
And our shadow on the mountainside

After Salt Lake City
                          G
I have time to close my eyes

Before the Grand Canyon
                            F
Swallows us as we move south

I pray the Grand Canyon
                               C
Take our plane inside its mouth

[Solo]

C
We know the material
                                  G
And these songs, the serious lines

Under palms ethereal
                              F
In Hollywood's mysterious wild

These are coarse imaginings
                                C
Where cannibal inspectors thrive

On delirious ramblings
                               G
Now in real and troubling times

 
In the warm confusion
                              F
Of the looming foliage outside

The motel room obscura
                             C
A divining by Venetian blinds

[Outro]

F Em Em7 X2
F Am C F Em





                  ~~~~~~~~~~~~~~~~~~~~~~~~~~~~~~~~~~~~




-------------------------------------------------------------------------------
                             Timber Timbre - This Low Commotion
-------------------------------------------------------------------------------

Album : Hot Dreams (2014)
Tempo : 
E-mail: 
Tabbed by: Maxence45

Chords :
G       355433
Am      577555
Em      022000
Cmaj/G  332010
D       000232
B7      x21202     

Intro (live)

e|--------------------------------------------------------------|
B|------------5---------------4--------------3-------------2----|
G|-------4--------------5--------------4--------------3---------|
D|--5-------------4---------------3--------------2--------------|
A|--------------------------------------------------------------|
E|--------------------------------------------------------------|
                                                                     
e|--------------------------------------------------------------|
B|------------1---------------0---------------------------------|
G|-------2--------------0--------------------2--------------0---|
D|--2-------------2---------------------1--------------2--------|
A|---------------------------------2-------------2--------------|
E|--------------------------------------------------------------|    X2

G                       Am      Em
What does it mean to be unhealthy badly my love?
G          Am      Em
To be in a bad state so well
G                     Am       Em
What does it mean to face desire so sadly?
G         Am              Cmaj/G
To beg at the empty well

Em       D        G   Cmaj/G
Residual images hover above
Am          C         G                B7
I'm just a dog, a machine for your love
Em            D              G            Cmaj/G
To know every man, every place that you've been
Am             C             G      B7           
You turned me on, then you turned on me

            Em     B7  
This low commotion
            G      Cmaj/G   (X2)
This low commotion          
         Em    B7    G     Cmaj/G
Is going down, down, down, down
           Em      B7
This low commotion
           G       Cmaj/G
This low commotion
            Intro X2
This low commotion

G               Am    Em
America weren't you a miracle?
G          Am         Em
A fleeting chance in whole
G             Am      Em
But this low, low, low commotion
G                   Am        Cmaj/G
Would not leave our paridise alone

G          Am     Em         
And my two hands landed
G        Am          Em
Like two spiders on your knee
G             Am           Em
And one right ring finger branded
G           Am        Cmaj/G
But two lefts for two brands to please

Em       D        G     Cmaj/G
Residual images hover above
  Am     C      G               B7
I'm just dog, a machine for your love
Em                D          G                Cmaj/G
But to know every man, every face that you've seen
     Am            C            G         B7
Baby you turned me on, then you turned on me

           Em      B7
This low commotion  
          G       Cmaj/G     (X2)
This low commotion      
           Em               B7             G              Cmaj/G
This low commotion is going down, is going down, is going down, 
          Em            B7             G              Cmaj/G
Is going down, is going down, is going down, is going down,
         Em       B7
Your low commotion
          G      Cmaj/G
Your low commotion       (x2)
         
[Intro]




                  ~~~~~~~~~~~~~~~~~~~~~~~~~~~~~~~~~~~~



-------------------------------------------------------------------------------
                             Timber Timbre - The New Tomorrow
-------------------------------------------------------------------------------

Album : Hot Dreams (2014)
Tempo : 
E-mail: 
Tabbed by: adrian_misak

Chords used:
   D   Em  Am  G   C
e--5---7---0---3---0-------------
H--7---8---1---3---1-------------
G--7---9---2---0---0-------------
D--7---9---2---0---2-------------
A--5---7---0---2---3-------------
E--------------3-----------------


D   Em   x4

D     Em         D  Em
Clairvoyant divination
  D       Em        D   Em
A hoax no one could write
  D    Em      D   Em
Absorbing information
         D  Em        D   Em
Sleeping on Bibles at night
      D   Em       D    Em
Edgar never took a dollar
      D   Em     D   Em
In loosening his collar
     D        Em       D   Em
In a state of self-hypnosis
   D         Em   D   Em
He makes his diagnosis

Am      D       G    C
Yes, we see the body
   D   Em  D  Em
of my love
    D   Em  D  Em
Oh, my love

          D     Em      D     Em
Christian mystic, x-ray vision
  D        Em      D   Em
A trance by graded mind
    D       Em       D    Em
His eyelids start to flutter
         D       Em         D   Em
Read the headlines spanning time
  D      Em       D      Em
A moonlighting photographer
       D    Em       D     Em
Gladys Davis, his stenographer
   D        Em        D   Em
He dreamt a world war fire
         D    Em  D    Em
Dreamt a river of Sahara

Am      D       G   C
Yes, we see the body
Am      D       G    C
Yes, we see the body 
   D   Em  D  Em
of my love
    D   Em  D  Em
Oh, my love




                  ~~~~~~~~~~~~~~~~~~~~~~~~~~~~~~~~~~~~



-------------------------------------------------------------------------------
                             Timber Timbre - Run From Me
-------------------------------------------------------------------------------

Album : Hot Dreams (2014)
Tempo : 68
E-mail: 
Tabbed by: JoeB007 / Newg

E   :  022100
Bm  :  xx4432 
G   :  xx5433
Em  :  xx2453


Most of the chords in this song the bass note alternates between the 1 note and the 5 note of the chords. 


            E
run from me darlin, run my good wife
            B7
run from me darlin
                         E
youd better run for your life
            E
run from me baby, run my good wife
            B7
run from me baby
                        E
you better run for your life
         E7     A
and each time I see you
        E
I contemplate
            F#      F#7
what I love most of all
              B
your swinging gaze


            E
run from me darlin, run my good wife
              B7
run from me darlin
                         E
youd better run for your life

E   Bm  G   Em
run run run run x2

E   Bm  G   Em
run run run run (With Choirs) x3

E   Bm  G   Em
run run run run x4

E E

            
            
Suggest correction
Creating personal tab
Creating personal tab
You can edit any tab online and save it as your Personal.

You can edit, replace or remove any tab part or add personal notes – all changes will be seen only by you.

Personal tabs can be accessed anytime from any device, even offline.
Learn more »
Give kudos to tab author, rate the tab!
1 2 3 4 5
comments
print report bad tab
guest
You may want to rate the tab now too:
select rating
Wanna post a correction for this tab? Suggest correction