Oops, an error
Loading. Please wait.

Radio Riot tab

370 views 1 this week
3 commentsread comments
1 2 3 4 5
2 more votes to show rating
add to favorites
×
Save as Personal and add changes to this tab that will be seen only by you. Learn more ›
×
You can save this tab as Personal to edit and correct it or add notes. All changes will be seen only by you. Learn more »
launch autoscroll
font size
0
reset
how to read this tab
guitar tuner
edit
Autoscroll
slow
fast
+/-
esc
set tempo
stop
Tiny Masters of Today
Radio Riot
Standard Tuning: EADGBE
Tabbed By: Blink Day 4 Eva

this is a really simple song..but its fun to play.


(DISTORTED)
e|-------------------------------------------------------------------------|
B|-------------------------------------------------------------------------|
G|-------------------------------------------------------------------------|
D|--14---------------------------------------------------------------------|
A|--14------let this ring for a while.-------------------------------------|
E|--12---------------------------------------------------------------------|


then play this really distorted..
e|----------------------------------------------------------------|
B|----------------------------------------------------------------|
G|----------------------------------------------------------------|
D|----------------------------------------------------------------|
A|--14-12-----12-12------11-11---12--12--12------------------|    play this
E|--12-12-----10-10------9--9----10--10--10------------------|    8 times.


(DISTORTED)
e|-------------------------------------------------------------------------|
B|-------------------------------------------------------------------------|
G|-------------------------------------------------------------------------|
D|--14---------------------------------------------------------------------|
A|--14------let this ring for a while.-------------------------------------|
E|--12---------------------------------------------------------------------|



e|----------------------------------------------------------------|
B|----------------------------------------------------------------|
G|----------------------------------------------------------------|
D|----------------------------------------------------------------|
A|--14-12-----12-12------11-11---12--12--12------------------|    
E|--12-12-----10-10------9--9----10--10--10------------------|
play this once..then pause..then play again..then pause..then play again.



e|----------------------------------------------------------------|
B|----------------------------------------------------------------|
G|----------------------------------------------------------------|
D|----------------------------------------------------------------|
A|--14-12-----12-12------11-11---12--12--12------------------|    
E|--12-12-----10-10------9--9----10--10--10------------------| 4 times.


e|----------------------------------------------------------------|
B|----------------------------------------------------------------|
G|----------------------------------------------------------------|
D|----------------------------------------------------------------|
A|--14-12-----12-12------11-11---12--12--12------------------|  
E|--12-12-----10-10------9--9----10--10--10------------------|
once then pause then do this again then pause. and come come back with:

then end the song like this.
e|----------------------------------------------------------------|
B|----------------------------------------------------------------|
G|----------------------------------------------------------------|
D|----------------------------------------------------------------|
A|--14-12-----12-12------11-11---12--12--12------------------|    
E|--12-12-----10-10------9--9----10--10--10------------------| 8 times.

and thats pretty much it..enjoy..

the bands official website is:
www.tinymasters.net

            
            
Suggest correction
Creating personal tab
Creating personal tab
You can edit any tab online and save it as your Personal.

You can edit, replace or remove any tab part or add personal notes – all changes will be seen only by you.

Personal tabs can be accessed anytime from any device, even offline.
Learn more »
Give kudos to tab author, rate the tab!
1 2 3 4 5
comments
print report bad tab
3 comments total.
0 reply
blink day 4 eva 51 May 11, 2008 01:04 AM

sorry, the verses are supposed to be like this:

e|-----------------------------------------------------------|
B|-----------------------------------------------------------|
G|-----------------------------------------------------------|
D|-----------------------------------------------------------|
A|--14-14-----12-12------11-11---12--12--12------------------|
E|--12-12-----10-10------9--9----10--10--10------------------|

i put a twelve on the A string in the second time you stum the first chord. but its supposed to be 14..

0 reply
blink day 4 eva 51 May 11, 2008 01:04 AM

sorry, the verses are supposed to be like this:

e|-----------------------------------------------------------|
B|-----------------------------------------------------------|
G|-----------------------------------------------------------|
D|-----------------------------------------------------------|
A|--14-14-----12-12------11-11---12--12--12------------------|
E|--12-12-----10-10------9--9----10--10--10------------------|

i put a twelve on the A string in the second time you stum the first chord. but its supposed to be 14 like the thing i just made

0 reply
blink day 4 eva 51 May 11, 2008 01:05 AM

sorry came out twice

guest
You may want to rate the tab now too:
select rating
Wanna post a correction for this tab? Suggest correction