Oops, an error
Loading. Please wait.

Always Focused intro tab

version 1
version 1

Intro

Whole song

7,382 views 96 this week
7 commentsread comments
1 2 3 4 5
x 3
add to favorites
×
Save as Personal and add changes to this tab that will be seen only by you. Learn more ›
×
You can save this tab as Personal to edit and correct it or add notes. All changes will be seen only by you. Learn more »
launch autoscroll
font size
0
reset
how to read this tab
guitar tuner
edit
Autoscroll
slow
fast
+/-
esc
set tempo
stop
-------------------------------------------------------------------------------
                             Always Focused - Tiny Moving Parts
-------------------------------------------------------------------------------
Tabbed by:
E-mail: lance128686@gmail.com
Tabbed out by ear, by Lance Byrne
HUGE fan of Tiny Moving Parts

Tuning: DAEAC#E CAPO on the 4th fret.

e|---------------------------------------------------------------------------|
C#|-----------12p4h7p4-------------------------------------------------------|
A|---11p4h8p4--------------9/11\9h4------------------------------------------|
E|---------------------------------------------------------------------------|
A|--------------------------------------9\8h4--------------------------------|
D|4---------------------8-------------6--------------------------------------|




e|---------------------------------------------------------------------------|
C#|-----------12p4h7p4-------------------------------------------------------|
A|---11p4h8p4--------------9/11\9h4------------------------------------------|
E|---------------------------------------------------------------------------|
A|--------------------------------------9\8h4--------------------------------|
D|4---------------------8-------------6--------------------------------------|




e|---------------------------------------------------------------------------|
C#|-----------12p4h7p4-------------------------------------------------------|
A|---11p4h8p4--------------9/11\9h4------------------------------------------|
E|---------------------------------------------------------------------------|
A|--------------------------------------9\8h4--------------------------------|
D|4---------------------8-------------6--------------------------------------|




e|---------------------------------------------------------------------------|
C#|-----------12p4h7p4-------------------------------------------------------|
A|---11p4h8p4--------------9/11\9h4------------------------------------------|
E|---------------------------------------------------------------------------|
A|--------------------------------------9\8h4--------------------------------|
D|4---------------------8-------------6--------------------------------------|



************************************
| r   let ring
| /   slide up
| \   slide down
| h   hammer-on
| p   pull-off
| ~   vibrato
| +   harmonic
| x   Mute note
| b   Bend
| pb  Pre-bend
| br  Bend release
| pbr Pre-bend release
| brb Bend release bend

************************************

            
            
Suggest correction
Creating personal tab
Creating personal tab
You can edit any tab online and save it as your Personal.

You can edit, replace or remove any tab part or add personal notes – all changes will be seen only by you.

Personal tabs can be accessed anytime from any device, even offline.
Learn more »
Give kudos to tab author, rate the tab!
1 2 3 4 5
comments
print report bad tab
7 comments total. Showing first comments.
0 reply
jessebobb 92 Oct 29, 2014 04:33 AM

e|---------------------------------------------------------------------------|
C#|------------------12p4----------------------------------------------------|
A|---11p4h8p4------------11p4--9/11\9h4--------------------------------------|
E|------------11p4h6---------------------------------------------------------|
A|----------------------------------------9\8h4------------------------------|
D|4--------------------------8----------6------------------------------------|

0 reply
jessebobb 92 Oct 29, 2014 04:34 AM

Just another way of doing it, I think it might be a little more accurate, thanks for the tab!

0 reply
darthmonkey26 10 Dec 13, 2014 06:01 PM

Wow dude,you need to tabs this out again your intentions are good but fretting starts at the 4th FRET! so you go from there you frustrated me to fullest with that this is how it should be...

e|---------------------------------------------------------------------------|
C#|-------------------8p0----------------------------------------------------|
A|----7p0h4p0------------7p0--5/7\5h0--------------------------------------|
E|-------------7p0h2---------------------------------------------------------|
A|----------------------------------------5\4h0------------------------------|
D|0--------------------------4----------2------------------------------------|

guest
You may want to rate the tab now too:
select rating
Wanna post a correction for this tab? Suggest correction