Oops, an error
Loading. Please wait.

Campus Fashion tab

187 views 9 this week
no commentswrite comment
1 2 3 4 5
3 more votes to show rating
add to favorites
×
Save as Personal and add changes to this tab that will be seen only by you. Learn more ›
×
You can save this tab as Personal to edit and correct it or add notes. All changes will be seen only by you. Learn more »
launch autoscroll
font size
0
reset
how to read this tab
guitar tuner
edit
Autoscroll
slow
fast
+/-
esc
set tempo
stop
Author
Difficulty
About this tab version
This is the lead guitar part for the whole song, including the solo. I tried to be pretty meticulous and consistent with the spacing of notes to show rhythm. But definitely give the song a listen, because there are a few parts that are hard to write out rhythm for (the first time through the intro). Other than that, the tab should be spot-on. Was this info helpful? Yes No
[Intro]
(After the first time through this line, the rhythm becomes a little more free)
e|---------------------------------------------------------------------------|
B|-14--14--14--14141414----121212--xx-14-14--1212--1414-14-121212------------|
G|-13--13--13--13131313----101010--xx-14-14--1010--1313-13-101010------------|
D|-14--14--14--14141414----121012--xx-14-14--1212--1414-14-121212------------| x3
A|---------------------------------------------------------------------------|
E|---------------------------------------------------------------------------| 

[Verse]
"make you smile..."
e|-7---7----7---------------------------------------77-----------------------|
B|-9---9----9-----10--------12-------14-------12----77-----------------------|
G|-9---9----9--------9---------9--------9-----------77-----------------------|
D|-9---9----9--/11-------/11------/14------/14------99-----------------------|
A|-7---7----7---------------------------------------99-----------------------|
E|-7---7----7 --------------------------------------77-----------------------|

"just  my  style..."
e|-7---7----7----------------------------------------xx----------------------|
B|-9---9----9-----10--------12-------14-------12-----xx----------------------|
G|-9---9----9--------9---------9--------9------------xx----------------------|
D|-9---9----9--/11------/12-------/14------/12-------xx----------------------|
A|-7---7----7----------------------------------------xx----------------------|
E|-7---7----7 ---------------------------------------xx----------------------|

[Chorus]
e|----------------------------------12--12-----------------------------------|
B|-10--10--101112--1412--1214--------------121412--12--1012------------------|
G|---------------------------------------------------------------------------|
D|---------------------------------------------------------------------------|
A|---------------------------------------------------------------------------|
E|---------------------------------------------------------------------------|

e|----------------------------------12--12-9129--9---------------------------|
B|-10--10--101112--1412--1214-----------------------1212\--------------------|
G|---------------------------------------------------------------------------|
D|---------------------------------------------------------------------------|
A|---------------------------------------------------------------------------|
E|---------------------------------------------------------------------------|

e|----------------------------------12--12-----------------------------------|
B|-10--10--101112--1412--1214--------------121412--12--1012------------------|
G|---------------------------------------------------------------------------|
D|---------------------------------------------------------------------------|
A|---------------------------------------------------------------------------|
E|---------------------------------------------------------------------------|

e|----------------------------------12--12--9129--9--------------------------|
B|-10--10--101112--1412--1214------------------------1212\-------------------|
G|---------------------------------------------------------------------------|
D|---------------------------------------------------------------------------|
A|---------------------------------------------------------------------------|
E|---------------------------------------------------------------------------|

e|---------------------------------------------------------------------------|
B|--14--12-------14-------12-------------------------------------------------|
G|--13--10----------13-------------------------------------------------------|
D|--14--12----14-------14----------------------------------------------------|
A|---------------------------------------------------------------------------|
E|---------------------------------------------------------------------------| 

[Verse]
"gets  my vibe..." 
e|-7---7---7-----------------------------------------77----------------------|
B|-9---9---9------10--------12-------14----------12--77----------------------|
G|-9---9---9---------9--/11----9--/13---/12--/11-----77----------------------|
D|-9---9---9---/11------/12-------/14---/13--/12-----99----------------------|
A|-7---7---7-----------------------------------------99----------------------|
E|-7---7---7-----------------------------------------77----------------------|

"let  her slide..." 
e|-7---7---7----------------------------------------------xx-----------------|
B|-9---9---9------10--------141210----------14-------12---xx-----------------|
G|-9---9---9---------9--/11--------11----/13---9----------xx-----------------|
D|-9---9---9---/11------/12--------------/14------/12-----xx-----------------|
A|-7---7---7----------------------------------------------xx-----------------|
E|-7---7---7----------------------------------------------xx-----------------|

[Chorus]
e|----------------------------------12--12-----------------------------------|
B|-10--10--101112--1412--1214--------------121412--12--1012------------------|
G|---------------------------------------------------------------------------|
D|---------------------------------------------------------------------------|
A|---------------------------------------------------------------------------|
E|---------------------------------------------------------------------------|

e|----------------------------------12--12-9129--9---------------------------|
B|-10--10--101112--1412--1214-----------------------1212\--------------------|
G|---------------------------------------------------------------------------|
D|---------------------------------------------------------------------------|
A|---------------------------------------------------------------------------|
E|---------------------------------------------------------------------------|

e|----------------------------------12--12-----------------------------------|
B|-10--10--101112--1412--1214--------------121412--12--1012------------------|
G|---------------------------------------------------------------------------|
D|---------------------------------------------------------------------------|
A|---------------------------------------------------------------------------|
E|---------------------------------------------------------------------------|

e|----------------------------------12--12--9129--9--------------------------|
B|-10--10--101112--1412--1214------------------------1212\---------2---------|
G|-----------------------------------------------------------------1---------|
D|-----------------------------------------------------------------2---------|
A|---------------------------------------------------------------------0-2---|
E|---------------------------------------------------------------------------|

[Solo]
e|---------------------------------------------------------------------------|
B|---------------------------------------------------------------------------|
G|--------------------------------1616161212---------------------------------|
D|-/14--12--14---14-14--12-1414----------------14-14-13-12--1414141414121212-|
A|---------------------------------------------------------------------------|
E|---------------------------------------------------------------------------| 


e|---------------------------------------------------------------------------|
B|---------------------------------------------------------------------------|
G|------------------1616161212-----------------------------------------------|
D|-14-14--12-1414----------------14-1417-14--141414--171714------------------|
A|---------------------------------------------------------------------------|
E|---------------------------------------------------------------------------|


e|---------------------------------------------------------------------------|
B|---------------------------------------------------------------------------|
G|------------------1616161212-----------------------------------------------|
D|-14-14--12-1414----------------14-1413-12--12------------------------------|
A|---------------------------------------------151215121517------------------|
E|---------------------------------------------------------------------------|

e|---------------------------------------------------------------------------|
B|---------------------------------------------------------------------------|
G|------------------1616161212-----------------------------------------------|
D|-14-14--12-1414----------------14-1417-14--141414--17-14-------------------|
A|---------------------------------------------------------------------------|
E|---------------------------------------------------------------------------|

e|----------------------------------------------------7----------------------|
B|----------------------------------------------------7----------------------|
G|-16--12--------16--12--------16--12---------16--12--7----------------------|
D|---------14------------14------------14-------------9----------------------|
A|----------------------------------------------------9----------------------|
E|----------------------------------------------------7----------------------|

[Verse]
"just  my  style...
e|-7---7----7-----------------------------------------------------<12>-------|
B|-9---9----9----14TP---12TP-14TP---12TP-14TP---1214-17-17-17-17--<12>-------|
G|-9---9----9-----------------------------------------------------<12>-------|
D|-9---9----9-----------------------------------------------------<12>-------|
A|-7---7----7-----------------------------------------------------<12>-------|
E|-7---7----7-----------------------------------------------------<12>-------|

[Chorus]
e|----------------------------------12--12-----------------------------------|
B|-10--10--101112--1412--1214--------------121412--12--1012------------------|
G|---------------------------------------------------------------------------|
D|---------------------------------------------------------------------------|
A|---------------------------------------------------------------------------|
E|---------------------------------------------------------------------------|

e|----------------------------------12--12-9129--9---------------------------|
B|-10--10--101112--1412--1214-----------------------141312-------------------|
G|---------------------------------------------------------------------------|
D|---------------------------------------------------------------------------|
A|---------------------------------------------------------------------------|
E|---------------------------------------------------------------------------|

e|----------------------------------12--12-----------------------------------|
B|-10--10--101112--1412--1214--------------121412--12--1012------------------|
G|---------------------------------------------------------------------------|
D|---------------------------------------------------------------------------|
A|---------------------------------------------------------------------------|
E|---------------------------------------------------------------------------|

e|----------------------------------12--12-----------------------------------|
B|-10--10--101112--1412--1214--------------121412--12--1012------------------|
G|---------------------------------------------------------------------------|
D|---------------------------------------------------------------------------|
A|---------------------------------------------------------------------------|
E|---------------------------------------------------------------------------|

[Outro]
e|---------------------------------------------------------------------------|
B|---------------------------------------------------------------------------|
G|---------------------------------------------------------------------------|
D|-11---------11-----------------11---------11-------------------------------|
A|-----9--12-------99--121212--------9--12------99--121212-------------------|
E|---------------------------------------------------------------------------|

***(To avoid confusion, in this tab, a line written like this: --141210-- or --9129--, should be played
14, 12, 10, or 9, 12, 9. NOT 1, 4, 1, 2, 1, 0 or 9, 1, 2, 9. I know this is probably not 
proper notation, but in my opinion, it makes it easier to see the rhythm.)***

************************************

| x   Dead note
| /   Slide up
| \   Slide down
| TP  Tremolo Picking
| <>  Harmonic

************************************

            
            
Suggest correction
Creating personal tab
Creating personal tab
You can edit any tab online and save it as your Personal.

You can edit, replace or remove any tab part or add personal notes – all changes will be seen only by you.

Personal tabs can be accessed anytime from any device, even offline.
Learn more »
Give kudos to tab author, rate the tab!
1 2 3 4 5
comments
print report bad tab
guest
You may want to rate the tab now too:
select rating
Wanna post a correction for this tab? Suggest correction