Oops, an error
Loading. Please wait.

Stranded On My Own chords

175 views 1 this week
no commentswrite comment
1 2 3 4 5
3 more votes to show rating
add to favorites
×
Save as Personal and add changes to this tab that will be seen only by you. Learn more ›
×
You can save this tab as Personal to edit and correct it or add notes. All changes will be seen only by you. Learn more »
launch autoscroll
font size
0
reset
transpose
0
reset
display chords
guitar tuner
edit
Autoscroll
slow
fast
+/-
esc
set tempo
stop
Author
Strumming
There is no strumming pattern for this song yet. and get +5 IQ
[Verse 1]

      D            G        D
Crazy heart, where have you gone?
A                                     G       D
I thought that you and me were really getting along
D             G         D
Left alone to dread the dawn,
A                               G         D
Like some kind of science experiment gone wrong
                G      D
I could've made history
                   G      D
Now I've been made history
              G      D            G       D
Who knew that victory could be so slippery?
                           G    A
Cover the thick blood stains 
                           G    A
on your sick young brain
                           G    A
Just take your Ritalin 
                                    A
and then you can play the old hits again


[Verse 1]

D                 G         D
You explained the abyss away,
A                                       G        D
I can't listen when you say you're not missing me
D                     G         D     A
You kissed me in the blustering heat right there on the street,
                  G             D
With tears on my glistening cheek
G                        D                   G             D
Now, no one listens to me, they tell me I'm twisted and weak
G                          D                     G         D
I see that I was picked to be the picture in the dictionary
                           G         A
Look up, 'Addicted' that's me
                           G        A
Then look up, 'Wicked disease'
                            G        A
Then look up, 'Sick of Police'
                            G        A
Then look up, 'Victim' closely 

[SOLO] 

(Rhythm guitar plays D G D A G D X2)

e|----------------------------------------------------------5--0--5-7----7-10--|
B|--7-7--7-7-7-7-7--------7-10-7---7-7---------------------------------8-------|
G|-----------------9-7-9---------------9-7-9-6-----6-9--6-9--------------------|
D|-----------------------------------------------7-----------------------------|
A|-----------------------------------------------------------------------------|
E|-----------------------------------------------------------------------------|

e|-7-10-14-14-14-----14-17---19--17------------------17------------------------|
B|----------------17----------------19-17-----17-19-----19---19-19-17-17-15-15-|
G|----------------------------------------19-----------------------------------|
D|-----------------------------------------------------------------------------|
A|-----------------------------------------------------------------------------|
E|-----------------------------------------------------------------------------|

e|--------------------------------------10-10-10-----10-10-10-10-10-10-10-10-10|
B|-17-17--14-14-14-12----14-14-12-12-10-10-10-10-----10-10-10-10-10-10-10-10-10|
G|--------------------14-------------------------12b---------------------------|
D|-----------------------------------------------------------------------------|
A|-----------------------------------------------------------------------------|
E|-----------------------------------------------------------------------------|


[Bridge 1]

A
I meet the mystery beast,
A
Same one my sister receives
A                                        G       D
He comes to burgeon and beat, demands me on both knees
A       
He will not admit defeat when he pricks, I'm gonna bleed
A              
and I can race fist or flee,
A             G          D
Soon shoutin' No, mister please!
                   G       A                           G   A
As he destroys the diseases as though Jesus could see us
                       G  A                          G    A
High up in the cathedral where an evil heart freezes
             G                    A                            G
And even the devil would start to believe when the man without equal
         A       D
from the pulp it preaches
 G         A                        D
You gotta believe can tell you the secrets


[Bridge 2]

A
Smiling through limitless rage
A
Violently neutered and caged
A
Stuffed with subliminal hate
A                                         G           D
Nothing but a puppet at play, crying in a beautiful place
                G     A                                   G   A
Another burial display on a man visible in a legal-ish space 
A
It's the usual way within a week of Wednesday 


[Outro]

      D            G        D
Crazy heart, where have you gone?
A                                     
I thought that you and me 
A                                     
I thought that you and me 
A                                     G       D
I thought that you and me were really getting along 

            
            
Suggest correction
Creating personal tab
Creating personal tab
You can edit any tab online and save it as your Personal.

You can edit, replace or remove any tab part or add personal notes – all changes will be seen only by you.

Personal tabs can be accessed anytime from any device, even offline.
Learn more »
Give kudos to tab author, rate the tab!
1 2 3 4 5
comments
print report bad tab
guest
You may want to rate the tab now too:
select rating
Wanna post a correction for this tab? Suggest correction