Oops, an error
Loading. Please wait.

Unravel tab

version 1
version 1

Whole song

Interactive

2,327 views 9 this week
no commentswrite comment
1 2 3 4 5
x 3
add to favorites
×
Save as Personal and add changes to this tab that will be seen only by you. Learn more ›
×
You can save this tab as Personal to edit and correct it or add notes. All changes will be seen only by you. Learn more »
launch autoscroll
font size
0
reset
how to read this tab
guitar tuner
edit
Autoscroll
slow
fast
+/-
esc
set tempo
stop
-------------------------------------------------------------------------------
                             Unravel - TK
-------------------------------------------------------------------------------
This is all I have done so far, it is an 'acoustic' version of the song, made to sound like the original.
The rhythem for the chords is not shown here, but listening to the song will let you figure it out.
Tabbed by: Karn1v3rus
E-mail:karn1v3rus@gmail.com

130bpm

Tuning: G C F Gb D g (Capo 3rd)

e|----------------|----------------|----------------|----------------|
B|--------0-------|--------0-------|--------0-------|--------0-------|
G|----0-----0---0-|----0-----0---0-|----0-----0---0-|----0-----0---0-|  X2
D|--2---2-----2---|--5---5-----5---|--4---4-----4---|--5---5-----5---|
A|3---------------|7---------------|5---------------|7---------------|
E|----------------|----------------|----------------|----------------|

e|----------------|----------------|----------------|0---------------|
B|--------0-------|--------0-------|--------0-------|0---------------|
G|----0-----0---0-|----0-----0---0-|----0-----0---0-|0---------------|
D|--2---2-----2---|--4---4-----4---|--4---4-----4---|2---------------|
A|3---------------|5---------------|5---------------|2---------------|
E|----------------|----------------|----------------|0---------------|

e|7p5-----7p5-----|7p5-----7p5-----|7p5-----7p5-----|0-15-0-12\----------------|
B|----8-7-----8-7-|----8-7-----8-7-|----8-7-----8-7-|------------------10h12---|
G|----------------|----------------|----------------|----------12p11h12-----12-|
D|----------------|----------------|----------------|--------------------------|
A|----------------|----------------|----------------|--------------------------|
E|----------------|----------------|----------------|--------------------------|

E|0-15-0-12\-0-12h15-0-12h15---|0-15-0-12\----------------|0-15-0-12\-0h12h15-0h12h14-|0---------------|
B|--------------------------15-|------------------10h12---|---------------------------|0---------------|
G|-----------------------------|----------12p11h12-----12-|---------------------------|0---------------|
D|-----------------------------|--------------------------|---------------------------|2---------------|
A|-----------------------------|--------------------------|---------------------------|2---------------|
E|-----------------------------|--------------------------|---------------------------|0---------------|

e|0---------------|3---------------|5---------------|3---------------|
B|0---------------|1---------------|3---------------|3---------------|
G|0---------------|0---------------|0---------------|0---------------|  X2
D|2---------------|2---------------|4---------------|0---------------|
A|2---------------|3---------------|5---------------|2---------------|
E|0---------------|----------------|----------------|3---------------|

E|0---------------|0---------------|0---------------|0x--------------|
B|0---------------|0---------------|0---------------|0x--------------|
G|0---------------|0---------------|0---------------|0x--------------|
D|2---------------|2---------------|2---------------|2x--------------|
A|2---------------|2---------------|2---------------|2x--------------|
E|0---------------|0---------------|0---------------|0x--------------|

E|------------------------------------------------|1515-15-15-15-15-15-15-14-14-14-14-14-14-14-14-|
B|12-12-12-12-12-12-12-12-12-12-12-12-12-12-12-12-|------------------------------------------------|
G|------------------------------------------------|------------------------------------------------|
D|------------------------------------------------|------------------------------------------------|
A|------------------------------------------------|------------------------------------------------|
E|------------------------------------------------|------------------------------------------------|

E|------------------------------------------------|--------------------------------------------------|
B|12-12-12-12-12-12-12-12-12-12-12-12-12-12-12-12-|\10-10-10-10-/15-15-15-15-15-15-15-15-15-15-15-15-|
G|------------------------------------------------|--------------------------------------------------|
D|------------------------------------------------|--------------------------------------------------|
A|------------------------------------------------|--------------------------------------------------|
E|------------------------------------------------|--------------------------------------------------|

E|------------------------------------------------|15-15-15-15-15-15-15-15-14-14-14-14-14-14-14-14-|
B|12-12-12-12-12-12-12-12-12-12-12-12-12-12-12-12-|------------------------------------------------|
G|------------------------------------------------|------------------------------------------------|
D|------------------------------------------------|------------------------------------------------|
A|------------------------------------------------|------------------------------------------------|
E|------------------------------------------------|------------------------------------------------|

E|------------------------------------------------|--------------------------------------------------|
B|12-12-12-12-12-12-12-12-12-12-12-12-12-12-12-12-|\10-10-10-10-/15-15-15-15-15-15-15-15-15-15-15-15-|
G|------------------------------------------------|--------------------------------------------------|
D|------------------------------------------------|--------------------------------------------------|
A|------------------------------------------------|--------------------------------------------------|
E|------------------------------------------------|--------------------------------------------------|

E|------------------------------------------------|15-15-15-15-15-15-15-15-14-14-14-14-14-14-14-14-|
B|12-12-12-12-12-12-12-12-12-12-12-12-12-12-12-12-|------------------------------------------------|
G|------------------------------------------------|------------------------------------------------|
D|------------------------------------------------|------------------------------------------------|
A|------------------------------------------------|------------------------------------------------|
E|------------------------------------------------|------------------------------------------------|

E|7--5----7--5----|7--5----7--5----|7--5----7--5----|7--5----7--5----|
B|------8-------8-|------8-------8-|------8-------8-|------8-------8-|
G|----------------|----------------|----------------|----------------|
D|----------------|----------------|----------------|----------------|
A|----------------|----------------|----------------|----------------|
E|----------------|----------------|----------------|----------------|

E|7--5----7--5----|7--5----7--5----|7--5----7--5----|7--5----7--5----|
B|------8-------8-|------8-------8-|------8-------8-|------8-------8-|
G|----------------|----------------|----------------|----------------|
D|----------------|----------------|----------------|----------------|
A|----------------|----------------|----------------|----------------|
E|----------------|----------------|----------------|----------------|

e|----------------|----------------|----------------|----------------|
B|--------0-------|--------0-------|--------0-------|--------0-------|
G|----0-----0---0-|----0-----0---0-|----0-----0---0-|----0-----0---0-|
D|--2---2-----2---|--5---5-----5---|--4---4-----4---|--5---5-----5---|
A|3---------------|7---------------|5---------------|7---------------|
E|----------------|----------------|----------------|----------------|

e|----------------|----------------|----------------|----------------|
B|0-0-0-0-0-0-0-0-|0-0-0-0-0-0-0-0-|0-0-0-0-0-0-0-0-|0x--------------|
G|0-0-0-0-0-0-0-0-|0-0-0-0-0-0-0-0-|0-0-0-0-0-0-0-0-|0x--------------|
D|2-2-2-2-2-2-2-2-|4-4-4-4-4-4-4-4-|4-4-4-4-4-4-4-4-|4x--------------|
A|3-3-3-3-3-3-3-3-|5-5-5-5-5-5-5-5-|5-5-5-5-5-5-5-5-|5x--------------|
E|----------------|----------------|----------------|----------------|

E|---------------------------------|------------------------------------------------|
B|---------------------------------|------------------------------------------------|
G|9-9-9-9-9-9-9-9-9-9-9-9-9-9-9-9--|12-12-12-12-12-12-12-12-11-11-11-11-11-11-11-11-|
D|---------------------------------|------------------------------------------------|
A|---------------------------------|------------------------------------------------|
E|---------------------------------|------------------------------------------------|

E|---------------------------------|------------------------------------------------|
B|---------------------------------|------------------------------------------------|
G|---------------------------------|14-14-14-14-14-14-14-14-14-14-14-14-14-14-14-14-|
D|9-9-9-9-9-9-9-9-9-9-9-9-9-9-9-9--|------------------------------------------------|
A|---------------------------------|------------------------------------------------|
E|---------------------------------|------------------------------------------------|

E|---------------------------------|------------------------------------------------|
B|---------------------------------|------------------------------------------------|
G|9-9-9-9-9-9-9-9-9-9-9-9-9-9-9-9--|12-12-12-12-12-12-12-12-11-11-11-11-11-11-11-11-|
D|---------------------------------|------------------------------------------------|
A|---------------------------------|------------------------------------------------|
E|---------------------------------|------------------------------------------------|

E|---------------------------------|------------------------------------------------|
B|---------------------------------|------------------------------------------------|
G|---------------------------------|14-14-14-14-14-14-14-14-14-14-14-14-14-14-14-14-|
D|9-9-9-9-9-9-9-9-9-9-9-9-9-9-9-9--|------------------------------------------------|
A|---------------------------------|------------------------------------------------|
E|---------------------------------|------------------------------------------------|

E|---------14-------|15-15-15-----------|15-15-15-15-14----|-----------------|
B|------------------|----------15-15-15-|---------------15-|12\--------------|
G|16-12-12----12-12-|------------------|-------------------|-----------------|
D|------------------|------------------|-------------------|-----------------|
A|------------------|------------------|-------------------|-----------------|
E|------------------|------------------|-------------------|-----------------|

E|/15-15-15-15-15-15-15-15-15-15-15-15-15-15-15-15-|/15-15-15-15-15-15-15-15-15-15-15-15-15-15-15-15-|
B|-------------------------------------------------|-------------------------------------------------|
G|-------------------------------------------------|-------------------------------------------------|
D|-------------------------------------------------|-------------------------------------------------|
A|-------------------------------------------------|-------------------------------------------------|
E|-------------------------------------------------|-------------------------------------------------|

E|/15-15-15-15-15-15-15-15-15-15-15-15-15-15-15-15-|/17-17-17-17-17-17-17-17-17-17-17-17-17-17-17-17-|
B|-------------------------------------------------|-------------------------------------------------|
G|-------------------------------------------------|-------------------------------------------------|
D|-------------------------------------------------|-------------------------------------------------|
A|-------------------------------------------------|-------------------------------------------------|
E|-------------------------------------------------|-------------------------------------------------|

E|15-15-15-14-------15-|15-15-15-14-------/17-|15-15-15-14-------15-|15-15-15-14-------15/17-|
B|------------15-12----|------------15-12-----|------------15-12----|------------15-12-------|
G|---------------------|----------------------|---------------------|------------------------|
D|---------------------|----------------------|---------------------|------------------------|
A|---------------------|----------------------|---------------------|------------------------|
E|---------------------|----------------------|---------------------|------------------------|



************************************

| /   slide up
| \   slide down
| h   hammer-on
| p   pull-off
| x   mute

************************************

            
            
Suggest correction
Creating personal tab
Creating personal tab
You can edit any tab online and save it as your Personal.

You can edit, replace or remove any tab part or add personal notes – all changes will be seen only by you.

Personal tabs can be accessed anytime from any device, even offline.
Learn more »
Give kudos to tab author, rate the tab!
1 2 3 4 5
comments
print report bad tab
guest
You may want to rate the tab now too:
select rating
Wanna post a correction for this tab? Suggest correction