Oops, an error
Loading. Please wait.

Waterfalls tab

version 1
version 1

Whole song

Interactive

by TLC
10,365 views 3 this week
2 commentsread comments
1 2 3 4 5
2 more votes to show rating
add to favorites
×
Save as Personal and add changes to this tab that will be seen only by you. Learn more ›
×
You can save this tab as Personal to edit and correct it or add notes. All changes will be seen only by you. Learn more »
launch autoscroll
font size
0
reset
how to read this tab
guitar tuner
edit
Autoscroll
slow
fast
+/-
esc
set tempo
stop
Capo on 4th fret

Intro:

Part I
-33---------------2---------------------------------------------|
-55-----2-2s4-(4)-4-----2-2s4-----------------------------------|
-44-1-3-----------3-1-3-------3-1-1s3---------------------------|  X2
-xx---------------x-------------------3-1-1s3-3333333-----------|
-xx---------------x---------------------------------------------|
-xx---------------x---------------------------------------------|

Part II
--------33-------2s3-2--------11--------00----------|
--------33--------3--3--------11--------22----------|
----0-0-00----2-2-2--2----2-2-22----0-0-00----------| X2
---0---------0-----------3---------2----------------|
--2---------0-----------3---------3-----------------|
-3---------0-----------1---------0------------------|

***Hint: The intro part II is made up of the chords G D F C

Then strum the chords G D F C through twice in a down, down, up, down, up, down, down, 
pattern

Chorus and Verse:

G     D     F     C

(In between the verse and chorus, play the intro part I tab; listen to the song if you 
get it at first b/c you can hear it in the background)


Hey guys, I'm sorry I don't have the lyrics up here, but you can get them easily off 
website. You'll do fine if you just keep strumming the G D F C pattern. This is a great 
and I hope this tab helps you out. Let me know if made any mistakes! PEACE

            
            
Suggest correction
Creating personal tab
Creating personal tab
You can edit any tab online and save it as your Personal.

You can edit, replace or remove any tab part or add personal notes – all changes will be seen only by you.

Personal tabs can be accessed anytime from any device, even offline.
Learn more »
Give kudos to tab author, rate the tab!
1 2 3 4 5
comments
print report bad tab
2 comments total.
0 reply
madbluesheep 82 Jun 18, 2009 05:33 PM

you would have got 5 stars if you had got the lyrics on too. the tab is ok, not quite right (i cant put my finger on quite why, yet) but the chords are right and i like the strumming tip. nice work fella

0 reply
nicolaparente1 10 Mar 20, 2017 05:15 PM

I just don't like it, no special reason

guest
You may want to rate the tab now too:
select rating
Wanna post a correction for this tab? Suggest correction