Oops, an error
Loading. Please wait.

Mousetrap tab

by TNT
19 views 1 this week
no commentswrite comment
1 2 3 4 5
3 more votes to show rating
add to favorites
×
Save as Personal and add changes to this tab that will be seen only by you. Learn more ›
×
You can save this tab as Personal to edit and correct it or add notes. All changes will be seen only by you. Learn more »
launch autoscroll
font size
0
reset
how to read this tab
guitar tuner
edit
Autoscroll
slow
fast
+/-
esc
set tempo
stop
Artist : TNT
Song   : Mousetrap
Album  : Transistor
Tuning : A half a step lower

[Intro
    |-> Palm muting                     <-|
D#|-----------------------------------------|
A#|-----------------------------------------|
F#|-----------------------------------------|
C#|-----------------------------------------|
G#|---6-7-8~----6-7-8~--------6-7-8~----6-7-|
D#|-8---------8-------------8---------8-----|

D#|----------------------------------------------------------------------|
A#|-------------------------8--11------8--11------8----------------------|
F#|--------8---------8--10--8--10--10--8--10--10--8---------8---------8--|
C#|-8--10--8--8--10--8--10---------10---------10-----8--10--8--8--10--8--|
G#|-8--10-----8--10----------------------------------8--10-----8--10-----|
D#|----------------------------------------------------------------------|

                                                      0'30"
D#|-------------------------------------------      --18\------|
A#|---------------8--11------8--11------8-----      --20\------|
F#|--------8--10--8--10--10--8--10--10--8-10--      ----Bar----|
C#|-8--10--8--10---------10---------10----10--      ----Down---|
G#|-8--10-------------------------------------      -----------|
D#|-------------------------------------------      -----------|

[Verse]                                                    (x4)
D#|--------------------------------------------------------------|
A#|-------------------------------8--8---8-9-----9-8---8--9-9----|
F#|-8--8--8-7-----7-8---8--7-7----8--8---8-8-----8-8---8---------|
C#|-8--8--8-8-----8-8---8--8-8---------6-----6-6-----6-----------|
G#|-----------6-6-----6--------x\-----PM----PMPM----PM--------x\-|
D#|----------PMPM----PM------------------------------------------|

[Chorus 1]
D#|-------------------------------------------------------------------|
A#|--------------------------7--7-------------------------------7--7--|
F#|--------------------------8--8-------------------------------8--8--|
C#|------------------------xx-----------------------------------------|
G#|---6-7-8~----6-7-8~---------------6-8-10~----6-8-/10~--8--6--------|
D#|-8---------8--------------------8----------8-----------------------|

D#|-----------------------------------------------------------|
A#|-------------------------8--11------8--11------8--11-11-11-|
F#|--------8---------8--10--8--10--10--8--10--10--8--10-10--8-|
C#|-8--10--8--8--10--8--10---------10---------10------8--8--8-|
G#|-8--10-----8--10-------------------------------------------|
D#|-----------------------------------------------------------|

(Repeat Verse) (x2)

[Chorus 2
]
D#|-----------------------------------------------------------|
A#|--------------------------7--7--------------8---8--8-8-----|
F#|--------------------------8--8--------8-10--8---8--8-8---8-|
C#|------------------------xx-------10--10-10--------------10-|
G#|---6-7-8~----6-7-8~--------------10------------------------|
D#|-8---------8-----------------------------------------------|


D#|-----------------8--8--11---15\----------------------------------|
A#|-------------8---8--8--11---13\----------------------------7--7--|
F#|------8-10---8---------------------------------------------8--8--|
C#|-10--10-10--10-------------------------------------------xx------|
G#|-10---------------------------------6-7-8~----6-7-8~-------------|
D#|----------------------------------8---------8--------------------|

D#|---------------------------------------------------------------|
A#|-----------------11--11-13--11------------------11--11-13--11--|
F#|--8---8-10---8---12--12-12--12----8---8-10--8---12--12-12--12--|
C#|-10--10-10--10-------------------10--10-10-10------------------|
G#|---------------------------------------------------------------|
D#|---------------------------------------------------------------|

D#|-------------------------------------------------------------------|
A#|-------------------------------------------------------------------|
F#|--------8---------8\---------------------8---------8\--------------|
C#|-8--10--8--8--10--8\--------------8--10--8--8--10--8\--------------|
G#|-8--10-----8--10------5-6----5----8--10-----8--10------5-6----5----|
D#|----------------------3-4----3-------------------------3-4----3----|

[Guitar Solo
]
D#|------------------------------------------------------------------------------|
A#|--------------------------------|-> Palm-muting----------------------------|
F#|-x-x-x-x\---3~-/5\--5h6p5bh/~---3h4p3-3-3-3-3-4h5p5-4-4-4-4-5h7p5-5-5-5-5-----|
C#|------------------------------------------------------------------------------|
G#|------------------------------------------------------------------------------|
D#|------------------------------------------------------------------------------|

D#|---------------------------------------------------------------------|
A#|---------------------------------------------------------------------|
F#|-7h9p7-7-7-7-7-9h10p9-9-9-9-9-10h12p10-10-10-10-12h13p12-12-12-12-12-|
C#|---------------------------------------------------------------------|
G#|---------------------------------------------------------------------|
D#|---------------------------------------------------------------------|

D#|-----------------------------------------------------------------------|
A#|------------------------------------------------------------------15~--|
F#|-15h17p15-15-15-15-15-17h19p17-17-17-17-17-------------14-15---15------|
C#|-------------------------------------------17p16~---17-----------------|
G#|-----------------------------------------------------------------------|
D#|-----------------------------------------------------------------------|

                    |-> Wah pedal       <-|
D#|-----------------18-17-16-15-14-13-12-11-11b1/^12----~------------------|
A#|-15--------------------------------------------@------------------------|
F#|---15------15-14-------------------------------|------------------------|
C#|-----17~---------------------------------Pick tapping while bending-the-|
G#|-----------------------------------------11th fret note with left hand--|
D#|------------------------------------------------------------------------|

[Backing guitars during guitar solo
]
         |-> x2                                          x2 <-|
D#|--------------------------------------------------------------|
A#|--------------------------------------------------------------|
F#|------3--3--3-2-----2-3---3--2-2--3--3--3-2-----2-3---3--2-2--|
C#|-3----3--3--3-3-----3-3---3--3-3--3--3--3-2-----2-3---3--2-2--|
G#|-3--------------1-1-----1-------------------1-1-----1---------|
D#|-1-------------PMPM----PM------------------PMPM----PM---------|
|
  |      |-> x2                                          x2 <-|
D#|--------------------------------------------------------------|
A#|----------------------------------4--4--4-3-----3-4---4--3-3--|
F#|----------------------------------3--3--3-3-----3-3---3--3-3--|
C#|--------------------------------------------------------------|
G#|--------------------------------------------------------------|
D#|--------------------------------------------------------------|

[Last Verse
]
 (I can't transcribe the backing guitar...too much effects!)

[Last Chorus
]
    |-> x2
                                    |-> Palm muting
D#|----------------------------------------------------------------|
A#|--------------------------7--7-------------------11--11-13--11--|
F#|--------------------------8--8----8---8-10---8---12--12-12--12--|
C#|------------------------xx-------10--10-10--10------------------|
G#|---6-7-8~----6-7-8~---------------------------------------------|
D#|-8---------8----------------------------------------------------|

                        x2 <-|
               Palm muting <-|
D#|--------------------------------|
A#|-----------------11--11-13--11--|
F#|--8---8-10---8---12--12-12--12--|
C#|-10--10-10--10------------------|
G#|--------------------------------|
D#|--------------------------------|

D#|--------------------------------------|
A#|--------------------------------------|
F#|--------8---------8\------------------|
C#|-8--10--8--8--10--8\------------Bar---|
G#|-8--10-----8--10------5-6----5--down--|
D#|----------------------3-4----3--\-----|

*******************************************************

| /  = Slide up
| \  = Slide down
| h  = Hammer-on
| p  = Pull-off
| ~  = Vibrato
| ^  = Trill
| PM = Palm Mute
| b?/ = Bend : ? represents how many steps to bend
| bh/   = Bend a 'half' step
| b1/   = Bend a whole step
| b1.5/ = Bend whole and a half steps

*******************************************************

            
            
Suggest correction
Creating personal tab
Creating personal tab
You can edit any tab online and save it as your Personal.

You can edit, replace or remove any tab part or add personal notes – all changes will be seen only by you.

Personal tabs can be accessed anytime from any device, even offline.
Learn more »
Give kudos to tab author, rate the tab!
1 2 3 4 5
comments
print report bad tab
guest
You may want to rate the tab now too:
select rating
Wanna post a correction for this tab? Suggest correction