Oops, an error
Loading. Please wait.

Possum Kingdom tab

version 5
version 5

Whole song

Interactive

by Toadies
491 views 9 this week
no commentswrite comment
1 2 3 4 5
1 last vote to show rating
add to favorites
×
Save as Personal and add changes to this tab that will be seen only by you. Learn more ›
×
You can save this tab as Personal to edit and correct it or add notes. All changes will be seen only by you. Learn more »
launch autoscroll
font size
0
reset
how to read this tab
guitar tuner
backing track
0:00
0:00
edit
Autoscroll
slow
fast
+/-
esc
set tempo
stop
About this tab version
I made this tab of Possum Kingdom because all of the tabs here have incorrect chords or notes in some places, and none of them have the correct chorus, so I thought I would post the all right chord shapes that the guitarist actually plays. I've studied a lot of live videos of Toadies when I was learning this song. So in this tab, I've basically put down the chord shapes I've seen the band play consistantly, The chord shape that no one has gotten right so far is at 2:23 in this video of the Todd Lewis playing the song ( https://www.youtube.com/watch?v=5f6LyOjLqPc )( by the way this isn't the only time he uses this chord shape, I've seen it in every performance he's done, it's just easier to see it in this video). I put in the right chords for the other parts as well. I've also given a strumming pattern for the 3rd verse because no other tab had it. And I've made some other corrections as well, mostly having to do with rhythm. Was this info helpful? Yes No
-------------------------------------------------------------------------------
                          POSSUM KINGDOM - Toadies
-------------------------------------------------------------------------------
Tabbed by: Mosquito-Flies
E-mail: KFGilson@Gmail.com

Tuning: Standard



Intro & Verse

        E7              E7              E7       Asus4 A
e|---------------------------------------------------------------------------|
B|--------------------------------------------------3p2-0-0------------------|
G|----1---1---x---x-x-1---1---x---x-x-1---1---x-----2---0-0------------------|
D|----0---0---x---x-x-0---0---x---x-x-0---0---x-----2---0-0------------------|
A|----2---2---x---x-x-2---2---x---x-x-2---2---x---0-----0-0------------------|
E|----0---0---x---x-x-0---0---x---x-x-0---0---x------------------------------|

              Make up  -  your mind...

e|---------------------------------------------------------------------------|
B|--------------------------------------------------3p2-2-2-3p2-0-0----------|
G|----1---1---x---x-x-1---1---x---x-x-1---1---x-x---2---2-2-2---0-0----------|
D|----0---0---x---x-x-0---0---x---x-x-0---0---x-x---2---2-2-2---0-0----------|
A|----2---2---x---x-x-2---2---x---x-x-2---2---x-x-0-----0-0-0---0-0----------|
E|----0---0---x---x-x-0---0---x---x-x-0---0---x-x----------------------------|
    
              Decide    -    to walk  -  with me...



1st Lead A (By my side) & 2nd Lead (...my dark secret)

e|-----------------------------------------------------------------------------|
B|-----------------------------------------------------------------------------|
G|------------9---7---------------------------9---7----------------------------|
D|-----------------------6(whammy x4)-----------------------7---6(whammy x7)---|
A|-12\7---7---------------------------7---7------------------------------------|
E|-----------------------------------------------------------------------------|
      ^
     Start on 7th fret on 2nd Lead                              ^ whammy dive on the 2nd Lead




1st Lead B (By my side) & 3rd Lead (after 1st chorus) 

e|-----------------------------------------------------------------------------|
B|-----------------------------------------------------------------------------|
G|------------9---7---------------------------9---7----------------------------|
D|-----------------------6(whammy x4)-----------------------7---6/(whammy)-----|
A|----7---7---------------------------7---7------------------------------------|
E|-----------------------------------------------------------------------------|
                                                                 ^
                                                                 Slide all the way


Pre Chorus 

e|---------------------------------------------------------------------------|
B|--------------------------------------------------3p2-0-0------------------|
G|----1---1---x-x-x-x-1---1---x-x-x-x-1---1---x-x---2---0-0------------------|
D|----0---0---x-x-x-x-0---0---x-x-x-x-0---0---x-x---2---0-0------------------|
A|----2---2---x-x-x-x-2---2---x-x-x-x-2---2---x-x-0-----0-0------------------|
E|----0---0---x-x-x-x-0---0---x-x-x-x-0---0---x-x----------------------------|

      I'm  -  Not  -  Gonna - Lie!

e|---------------------------------------------------------------------------|
B|--------------------------------------------------3p2-2-2-3p2-0-0----------|
G|----1---1---x-x-x-x-1---1---x-x-x-x-1---1---x-x---2---2-2-2---0-0----------|
D|----0---0---x-x-x-x-0---0---x-x-x-x-0---0---x-x---2---2-2-2---0-0----------|
A|----2---2---x-x-x-x-2---2---x-x-x-x-2---2---x-x-0-----0-0-0---0-0----------|
E|----0---0---x-x-x-x-0---0---x-x-x-x-0---0---x-x----------------------------|

          I Want  -   You  -  For Mine.

                                                             

Chorus 

            F#5              A5             E7          Ab7(omit 5)         A5              D5
e|-----------------------------------------------------------------------------------------------------|
B|------------------------------------------------------------------------------------3-3-3-3-3-3-3-3--|
G|--------------------2---2---2---2-2-1---1---1---1-1-5-5-5---5---5-5-2---2---2---2-2-2-2-2-2-2-2-2-2--|
D|----4---4---4---4-4-2---2---2---2-2-0---0---0---0-0-4-4-4---4---4-4-2---2---2---2-2-0-0-0-0-0-0-0-0--|
A|----4---4---4---4-4-0---0---0---0-0-2---2---2---2-2-3-3-3---3---3-3-0---0---0---0-0------------------|
E|----2---2---2---2-2-----------------0---0---0---0-0-4-4-4---4---4-4----------------------------------|

              I will treat you  -  well   -   my  -  sweet angel      -       so help - me Jesus...



Bridge 

e|---------------------------------------------------------------------------|
B|---------------------------------------------------------------------------|
G|----1---1---1---1---1---1---1---1-1-5---5---5---5---5---5---5---5----------|
D|----0---0---0---0---0---0---0---0-0-4---4---4---4---4---4---4---4----------|
A|----2---2---2---2---2---2---2---2-2-3---3---3---3---3---3---3---3----------|
E|----0---0---0---0---0---0---0---0-0-4---4---4---4---4---4---4---4----------|
  P.M.-------------------------------------------------------------|

      A5             Ab7(omit 5)    Db7(omit 5)       F#m        Ab7(omit 5)    Db7(omit 5) 
e|----------------------------------------------------------------------------------------------|
B|-------------------------------------------------2---2---2------------------------------------|
G|----2---2---2------5---5---5------4---4---4------2---2---2------5---5---5------4---4---4------|
D|----2---2---2------4---4---4------3---3---3------4---4---4------4---4---4------3---3---3------|
A|----0---0---0------3---3---3------4---4---4------4---4---4------3---3---3------4---4---4------|
E|-------------------4---4---4---------------------2---2---2------4---4---4---------------------|
   P.M.----|      P.M.----|      P.M.----|      P.M.----|      P.M.----|      P.M.----|

             give it up  -  to me...                      give it up  -  to me... 


              D5         Ab7(omit 5)   Db7(omit 5)  B5
e|---------------------------------------------------------------------------|
B|----3---3---3--------------------------------------------------------------|
G|----2---2---2------5---5---5------4---4---4---4-4-4-------4---4-4----------|
D|----0---0---0------4---4---4------3---3---3---3-3-4-------4---4-4----------|
A|-------------------3---3---3------4---4---4---4-4-2-------2---2-2----------|
E|-------------------4---4---4-----------------------------------------------|
   P.M.----|      P.M.----|      P.M.----|

             do you want  -  to be    -     My      An   -  gel?


      A5             Ab7(omit 5)      Db7(omit 5)     F#m             Ab7(omit 5)     Db7(omit 5) 
e|----------------------------------------------------2---2---2---2-2----------------------------------|
B|----------------------------------------------------2---2---2---2-2----------------------------------|
G|----2---2---2---2-2-5---5---5---5-5-4---4---4---4-4-2---2---2---2-2-5---5---5---5-5-4---4---4---4-4--|
D|----2---2---2---2-2-4---4---4---4-4-3---3---3---3-3-4---4---4---4-4-4---4---4---4-4-3---3---3---3-3--|
A|----0---0---0---0-0-3---3---3---3-3-4---4---4---4-4-4---4---4---4-4-3---3---3---3-3-4---4---4---4-4--|
E|--------------------4---4---4---4-4-----------------2---2---2---2-2-4---4---4---4-4------------------|

              Give It Up  -  To Me.                           Give It Up  -  To Me. 

      D5              Ab7(omit 5)     Db7(omit 5)     B5
e|----------------------------------------------------------------------------------------------------0---|
B|----3---3---3---3-3-----------------------------------------------------------------3-3-3-3-3-3-3-3-0---|
G|----2---2---2---2-2-5---5---5---5-5-4---4---4---4-4-4---4---4---4-4-2---2---2---2---2-2-2-2-2-2-2-2-1---|
D|----0---0---0---0-0-4---4---4---4-4-3---3---3---3-3-4---4---4---4-4-2---2---2---2---0-0-0-0-0-0-0-0-0---|
A|--------------------3---3---3---3-3-4---4---4---4-4-2---2---2---2-2-0---0---0---0-------------------2---|
E|--------------------4---4---4---4-4-----------------------------------------------------------------0---|


      Do  -  You  -  Want  -  To Be    -     My   -   An   -  gel?            So  Help Me!



3rd Verse


e|---------------------------------------------------------------------------|
B|---------------------------------------------------------------------------|
G|---------------------------------------------------------------------------|
D|---------------------------------------------------------------------------|
A|---------------------------------------------------------------------------|
E|----0---0---3---4---0---0---3---4---0---0---3---4---5---5------------------|
  P.M-------------------------------------------------------|

      be  -   my - an  -  gel...


e|---------------------------------------------------------------------------|
B|---------------------------------------------------------------------------|
G|---------------------------------------------------------------------------|
D|---------------------------------------------------------------------------|
A|---------------------------------------------------------------------------|
E|----0---0---3---4---0---0---3---4---0---0---3---4---5---5---5---5----------|
  P.M----------------------------------------------------------------|
      
        E7
e|---------------------------------------------------------------------------|
B|--------------------------------------------------3p2-0-0------------------|
G|----x-1-x-x-1---x-x-x-1-x-x-1---x-x-x-1-x-x-1-1---2---0-0------------------|
D|----x-0-x-x-0---x-x-x-0-x-x-0---x-x-x-0-x-x-0-0---2---0-0------------------|
A|----x-2-x-x-2---x-x-x-2-x-x-2---x-x-x-2-x-x-2-2-0-----0-0------------------|
E|----x-0-x-x-0---x-x-x-0-x-x-0---x-x-x-0-x-x-0-0----------------------------|

              do - you  want to die?

e|---------------------------------------------------------------------------|
B|--------------------------------------------------3p2-2-2-3p2-0-0----------|
G|----x-1-x-x-1---x-x-x-1-x-x-1---x-x-x-1-x-x-1-1---2---2-2-2---0-0----------|
D|----x-0-x-x-0---x-x-x-0-x-x-0---x-x-x-0-x-x-0-0---2---2-2-2---0-0----------|
A|----x-2-x-x-2---x-x-x-2-x-x-2---x-x-x-2-x-x-2-2-0-----0-0-0---0-0----------|
E|----x-0-x-x-0---x-x-x-0-x-x-0---x-x-x-0-x-x-0-0----------------------------|

              do - you  want to die? 


************************************

| /    slide up
| \    slide down
| h    hammer-on
| p    pull-off
| ~    vibrato
| +    harmonic
| x    Mute note
| b    Bend
| pb   Pre-bend
| br   Bend release
| pbr  Pre-bend release
| brb  Bend release bend
| P.M. palm mute
|
| (omit 5 means the chord has the fifth note in the scale removed)

************************************

            
            
Suggest correction
Creating personal tab
Creating personal tab
You can edit any tab online and save it as your Personal.

You can edit, replace or remove any tab part or add personal notes – all changes will be seen only by you.

Personal tabs can be accessed anytime from any device, even offline.
Learn more »
Give kudos to tab author, rate the tab!
1 2 3 4 5
comments
print report bad tab
guest
You may want to rate the tab now too:
select rating
Wanna post a correction for this tab? Suggest correction