Oops, an error
Loading. Please wait.

Dramatic Song bass

2,868 views 1 this week
1 commentread comment
1 2 3 4 5
x 4
add to favorites
×
Save as Personal and add changes to this tab that will be seen only by you. Learn more ›
×
You can save this tab as Personal to edit and correct it or add notes. All changes will be seen only by you. Learn more »
launch autoscroll
font size
0
reset
guitar tuner
edit
Autoscroll
slow
fast
+/-
esc
set tempo
stop
Difficulty
intermediate
This is repeated throughout most of the song
G:----------------------------------------|
D:----------------------------------------|
A:----------8----8-10----------11-10-8-10-|
E:-8-8-11-8---8-------8-8-11-8------------|

G:----------------------------------------|
D:----------------------------------------|
A:----------8---8-10-----------8----------|
E:-8-8-11-8---8-------8-8-11-8---11-10-11-|

The very last note is 8th fret on E
This song doesnt actually have a bass part, but i like playing parts that dont have any
bass in them, so i hope you do to.

            
            
Suggest correction
Creating personal tab
Creating personal tab
You can edit any tab online and save it as your Personal.

You can edit, replace or remove any tab part or add personal notes – all changes will be seen only by you.

Personal tabs can be accessed anytime from any device, even offline.
Learn more »
comments
print report bad tab
1 comment total.
0 reply
enderninj451 54 Jul 04, 2017 10:33 AM

it also sounds cool if you play this alongside the original

E|8-------6-------4-------3-------|

It's simple, yeah, but it still sounds cool with the original

guest
Wanna post a correction for this tab? Suggest correction