Oops, an error
Loading. Please wait.

It Wouldnt Have Made Any Difference bass

657 views 1 this week
2 commentsread comments
1 2 3 4 5
3 more votes to show rating
add to favorites
×
Save as Personal and add changes to this tab that will be seen only by you. Learn more ›
×
You can save this tab as Personal to edit and correct it or add notes. All changes will be seen only by you. Learn more »
launch autoscroll
font size
0
reset
guitar tuner
edit
Autoscroll
slow
fast
+/-
esc
set tempo
stop
Author
It Wouldn't Have Made Any Difference
Todd Rundgren
Bass Tab
Original Bassist: Todd Rundgren

Tempo=88BPM, 4/4 Time

Intro

|------|
|------|
|------|
|----0-|

|------------|-----------|-----------|---------------|
|------------|-----------|-----------|-------------4-|
|------------|-----------|-----------|-5--7---/4-7---|
|-5---5----0-|-5---5-----|-2---2-----|---------------|

|------------|-----------|-----------|---------------|
|------------|-----------|-----------|---------------|
|------------|-----------|-----------|-5--7---/4-7-4-|
|-5---5----0-|-5---5-----|-2---2-----|---------------|

Verse

|-----------|------------|--------------|-------------|
|-----7-----|------------|--------4-----|------4---2--|
|-----------|------------|------4----4--|-------------|
|-5---------|-5-5--5-----|-2-2----------|-2-2---------|

|-------------|------------|---------------|---4------------|
|-------------|------------|---------------|-2----2-------4-|
|-5----5------|-5---5---4--|-2-2---2----/4-|---------/4-7---|
|----5------5-|------------|-----2---------|----------------|

|------------|-------------|---------------|---------------|
|------------|-------------|-------4-------|-------4--4-2--|
|------------|-------------|-----4----4----|-----4---------|
|-5---5----0-|-5-5--5---4--|-2-2---------0-|-2-2-----------|

|--------------|---------------|------------|-------------|
|--------------|---------------|------------|-------------|
|-5-5---5------|-5-5---5--5-4--|-2---2--2---|-5--5--7--5--|
|-----5------5-|-----5---------|------------|-------------|

Chorus

|---------------|----------------|--------------|---------------|
|-------/7------|-------/7--7-6--|-4-4--4--4--2-|-------------4-|
|----/7-----7---|----/7----------|----4---------|-5--7---/4-7---|
|-5-x-----------|-5-x------------|--------------|---------------|

|---------------|------------------|--------------|---------------|
|-------/7------|-------/7-----7---|-4-4--4--4--2-|-------------4-|
|----/7-----7---|----/7------------|----4---------|-5--7---/4-7---|
|-5-x-----------|-5-x-------/5---4-|--------------|---------------|

Verse

|------------|-------------|-------------|-------------|
|------------|-------------|-------------|-------------|
|------------|-------------|-----------4-|-------------|
|-5---5----0-|-5-5--5---4--|-2-2--2------|-2-2--2----5-|

|--------------|--------------|--------------|-------------------|
|--------------|--------------|--------------|-x-4-2-4-----------|
|-5-5--5-------|-5-5---5---4--|-2-2--2---2-4-|-----------9p7\-4--|
|-----------/5-|-----x--------|--------------|-------------------|

|-----------|--------------|------------|--------------|
|-----------|--------------|------------|------4-------|
|-----------|--------------|------------|----4----4----|
|-5---5-----|-5-xx-5--5-4--|-2-xx-2-----|-2-x--------2-|

|--------------|--------------|-------------|-------------|
|--------------|--------------|-------------|-------------|
|-5-xx-5--5--0-|-5-xx-5--5-4--|-2-xx-2--2---|-5--5--7--5--|
|--------------|--------------|-------------|-------------|

Chorus

|---------------|---------------|--------------|---------------|
|-------/7------|-------/7------|-4-x--4--4--2-|-------------4-|
|----/7-----7---|----/7-----7---|----4---------|-5--7---/4-7---|
|-5-x-----------|-5-x-----------|--------------|---------------|

|----------------|---------------|--------------|---------------|
|-------/7-------|-------/7------|-4-x--4--4--2-|---------------|
|----/7-----7----|----/7-------7-|----4---------|-5--7---/4-7-4-|
|-5-x----------0-|-5-x-----------|--------------|---------------|

Bridge

|-----------------|-----------------|-----------------|-----------------|
|-5---------------|-5---------------|-5---------------|-5---------------|
|-------7---------|-------7---------|-------7---------|-------7---------|
|---5-5---5-5-5-5-|---5-5---5-5-5-5-|---5-5---5-5-5-5-|---5-5---5-5-5-5-|

|-----------------|----------------|----------------|--------------|
|-5---------------|---2-3-4----2-4-|---2-3-4----42--|--------------|
|-------7---------|-4--------4-----|-4--------4---4-|-2--2--4--4---|
|---5-5---5-5-5-5-|----------------|----------------|--------------|

|-----------|------------|
|-----------|------------|
|-5--7------|---5--7--5--|
|-----------|------------|

Chorus

|---------------|----------------|--------------|---------------|
|-------/7------|-------/7----7--|-4-x--4--4--2-|-------------4-|
|----/7-----7---|----/7-----7----|----4---------|-5--7---/4-7---|
|-5-x-----------|-5-x------------|--------------|---------------|

|----------------|----------------|--------------|-------------|
|-------/7-----7-|-------/7----7--|-4-x--4--4--2-|-------------|
|----/7-----7----|----/7-----7----|----4---------|-5--5--7--5--|
|-5-x------------|-5-x------------|--------------|-------------|

|----------------|-----------------|---------------|---------------|
|-------/7-----7-|-------/7----7p6-|-4-x--4----4-2-|-------------4-|
|----/7-----7----|----/7-----7-----|----4----4-----|-5--7---/4-7---|
|-5-x------------|-5-x-------------|---------------|---------------|

|---------------|-----------------|---------------|-------------*|
|-------/7------|-------/7----4-7-|-4-x--4----4-2-|-------------*|
|----/7-----7---|----/7-----7-----|----4----4-----|-5--5--7--5--*|
|-5-x-----------|-5-x-------------|---------------|-------------*|

            
            
Suggest correction
Creating personal tab
Creating personal tab
You can edit any tab online and save it as your Personal.

You can edit, replace or remove any tab part or add personal notes – all changes will be seen only by you.

Personal tabs can be accessed anytime from any device, even offline.
Learn more »
Give kudos to tab author, rate the tab!
1 2 3 4 5
comments
print report bad tab
2 comments total.
0 reply
lsa196 10 Apr 30, 2013 06:12 PM

Has anyone had the interest to work out tabs for Hello It's Me?

0 reply
199X 2,616 May 02, 2013 08:10 AM

I don't think so. I know the opening riff but that's about it.

guest
You may want to rate the tab now too:
select rating
Wanna post a correction for this tab? Suggest correction