Oops, an error
Loading. Please wait.

Inspector Norse tab

3,450 views 9 this week
3 commentsread comments
1 2 3 4 5
x 4
add to favorites
×
Save as Personal and add changes to this tab that will be seen only by you. Learn more ›
×
You can save this tab as Personal to edit and correct it or add notes. All changes will be seen only by you. Learn more »
launch autoscroll
font size
0
reset
how to read this tab
guitar tuner
edit
Autoscroll
slow
fast
+/-
esc
set tempo
stop
Author
Difficulty
TOdd Terje - Inspector Norse


INTRO 

The song starts with this bass-line (don't forget the drop-D tuning!)
Play the notes with a plectrum while palm-muting for the best result.

G|-----------------------------------------------------------------|
D|---1---1---3---3---3---3---3---33--1---1---3---3---3---3---3---3-|
A|-----------------------------------------------------------------|
D|-1---1---3---3---3---3---3---3---1---1---3---3---3---3---3---3---|

G|-----------------------------------------------------------------|
D|---1---1---3---3---3---3---0---0---1---1---3---3---3---5---7---0-|
A|-----------------------------------------------------------------|
D|-1---1---3---3---3---3---0---0---1---1---3---3---3---5---7---0---|

The bass continues in this fashion throughout the song, with only minor variations.

At around [0:40], the following chords are slowly faded in:

   F6        Ebmaj7

e|------1---------3---|
B|-6----3----8----3---|
G|-7-or-2----7-or-3---|
D|-7----3----8----1---|
A|-8---------6--------|
E|--------------------|

These are the basic chords of the song, I tabbed two ways of playing them, decide for yourself which way 
suits you best.

 
At [1:12], the riff starts:

e|---------------------------------------------------------------------------------------|
B|---------------------------------------------------------------------------------------|
G|----------------------------------------12-----------------------------------12--------|
D|-------------12*--12--12--------12--12-----------12--12--12--------15------------------|  
A|-8h10---10------------------------------------10---------------12------15-13-----------|
E|---------------------------------------------------------------------------------------|

* If you want this to sound a bit like the effect of the synth, you should play a really
  fast hammer-on, so actually: 10h12  10h12  10h12. This also goes for most of the other notes played.  

e|-10-13-10----------10-11-10------------10----------------------------------------------|
B|----------13----------------11------------10-------------------------------------------|
G|------------12----------------12-------------10----------------10---------12-----------|
D|------------------------------------------------12-10---10h12-----12-10-12---12-10h12--|
A|---------------------------------------------------------------------------------------|
E|---------------------------------------------------------------------------------------|


And then, it moves into the main riff of the song (at [1:29]):

e|------------------------------------------------------------------------------------------------|
B|------------------------------------------------------------------------------------------------|
G|-10----------------------------------12----------10---------------------------------12----------|
D|----12-10h12----12---12-----12-10h12----12-10h12----12-10h12----12---12--10-12-10------12-10h12-|
A|-------------12----12----12----------------------------------12----12------------13-------------|
E|------------------------------------------------------------------------------------------------|

e|------------------------------------------------------------------------------------------------|
B|------------------------------------------------------------------------------------------------|
G|-10----------------------------------12----------10---------------------------------------------|
D|----12-10h12----12---12--10-12-10h12----12-10h12----12-10h12----12---12---10-12-10--------------|
A|-------------12----12----------------------------------------10----10--------------1310---------|
E|------------------------------------------------------------------------------------------------|

Returning to the first riff:

e|----------------------------------------------------------------------------------------|
B|----------------------------------------------------------------------------------------|
G|----------------------------------------------------------------------12----------------|
D|------12--12--12--------12----------------12--12--12--------15--------------------------|
A|-10-------------------------12--10-----10----------------12-----15-13-------------------|
E|----------------------------------------------------------------------------------------|

e|----------------------------------------------------------------------------------------|
B|----------------------------------------------------------------------------------------|
G|----------------------------10----------------------------------10---------12-----------|
D|------12--12--12--------12----------------12--12---10-12-10h12-----12-10-12---12-10h12--|
A|-10-----------------------------10-----10-----------------------------------------------|
E|----------------------------------------------------------------------------------------|

Play main riff again; this time you also play it one octave higher:

e|----------------------------------------------------------------------------------------------------|
B|----------------------------------------------------------------------------------------------------|
G|-10----------------------------------12----------10---------------------------------12--------------|
D|----12-10h12----12---12-----12-10h12----12-10h12----12-10h12----12---12--10-12-10------12-10h12-----|
A|-------------12----12----12----------------------------------12----12------------13-----------------|
E|----------------------------------------------------------------------------------------------------|

e|--------------------------------------------------------------------------------13h15--15-----------|
B|-------------------------------------------------------------10--------10-13-15------------15-13h15-|
G|-10----------------------------------12----------10--------------10-12------------------------------|
D|----12-10h12----12---12--10-12-10h12----12-10h12----12-10h12----------------------------------------|
A|-------------12----12-------------------------------------------------------------------------------|
E|----------------------------------------------------------------------------------------------------|

e|-13---------------------------------15----------13---------------------------------15---------------|
B|----15-13h15----15---15----15-13h15----15-13h15----15-13h15----15---15--13-15-13-------15-13h15-----|
G|-------------14----14---14----------------------------------14----14-------------15-----------------|
D|----------------------------------------------------------------------------------------------------|
A|----------------------------------------------------------------------------------------------------|
E|----------------------------------------------------------------------------------------------------|

e|-13--------------------------------15----------13---------------------------------------------------|
B|----15-13h15----15---15----15-13------15-13h15----15-13h15-----15-13--------------------------------|
G|-------------14----14---14-------15-------------------------14-------14-12p10-----------------------|
D|-------------------------------------------------------------------------------12-------------------|
A|----------------------------------------------------------------------------------------------------|
E|----------------------------------------------------------------------------------------------------|

Then there's no riff for a while, only chords with a build-up to the bridge:


BRIDGE [3:37-4:08]

   Cm7                                   Gm 

e|---------------------------------------------------|
B|---------------------------------------------------|
G|-10------------------------------------12----------|
D|----12-10h12--10-12-10h12--10-12-10h12----12-10h12-|  x3
A|---------------------------------------------------|
E|---------------------------------------------------|

e|---------------------------------------15----------|
B|------------------------------------------15-13h15-|
G|-10------------------------------------------------|
D|----12-10h12--10-12-10h12--10-12-10h12-------------|  
A|---------------------------------------------------|
E|---------------------------------------------------|

e|-13------------------------------------15----------|
B|----15-13h15--13-15-13h15--13-15-13h15----15-13h15-|
G|---------------------------------------------------|
D|---------------------------------------------------|  x3
A|---------------------------------------------------|
E|---------------------------------------------------|

e|-13------------------------------------------------|
B|----15-13h15--13-15-13h15--13-15-13h15-------------|
G|---------------------------------------------------|
D|---------------------------------------------------|  
A|---------------------------------------------------|
E|---------------------------------------------------|


OUTRO [4:09-end]

back to the main chords (F6 and Ebmaj7)

at [4:42], this riff fades in:


e|-15-13-------------------|
B|-------15-13-15-11-13----|
G|----------------------12-| play this palm-muted!
D|-------------------------|
A|-------------------------|
E|-------------------------|

Then, at [4:56], the main riff kicks in again, this is already tabbed above.
When the riff is over, the song is nearing the end with only the chords continuing. 

Good luck!

            
            
Suggest correction
Creating personal tab
Creating personal tab
You can edit any tab online and save it as your Personal.

You can edit, replace or remove any tab part or add personal notes – all changes will be seen only by you.

Personal tabs can be accessed anytime from any device, even offline.
Learn more »
comments
print report bad tab
3 comments total.
+1 reply
joemhewitt 10 Oct 19, 2014 11:37 AM

Great tab!

thanks

0 reply
TZM 2,409 Oct 19, 2014 12:15 PM

thanks a lot!

0 reply
alain.lamblin 40 Feb 13, 2015 09:21 AM

Fun! I love this song!

(Check out my pending tab for Svensk Sås?)

guest
You may want to rate the tab now too:
select rating
Wanna post a correction for this tab? Suggest correction