Oops, an error
Loading. Please wait.

By Your Side tab

version 1
version 1

Whole song

Interactive

25,251 views 1 this week
6 commentsread comments
1 2 3 4 5
x 11
add to favorites
×
Save as Personal and add changes to this tab that will be seen only by you. Learn more ›
×
You can save this tab as Personal to edit and correct it or add notes. All changes will be seen only by you. Learn more »
launch autoscroll
font size
0
reset
how to read this tab
guitar tuner
edit
Autoscroll
slow
fast
+/-
esc
set tempo
stop
Author
INTRO:       VERSE:

|----------| ---------------| -----|---------------|----------|----------|
|----------| ---------------| -----|---------------|----------|----------|
|----------| ---------------| -----|---------------|----------|----------|
|-5-6--5-6-| -5-6--5-6--5-6-| -5-6-|-5-5-—5-6--5-6-|-5-5--8-6-|-5-6--8-6-|
|-6-6--6-6-| -6-6--6-6--5-6-| -6-6-|-6-6—-6-6--3-6-|-6-6--6-4-|-6-6--6-4-|
|-6-6--6-6-| -6-6--6-6--3-4-| -6-6-|-6-6--6-6--3-4-|-6-6--6-4-|-6-6--6-4-|

CHORUS:                                   PRE VERSE:

|----------------| -----| ----------------|-----|
|----------------| -----| ----------------|-----|
|----------------| -----| ----------------|-----|
|-5-6--5-6--10-6-| -5-6-| -5-6--5-6--10-6-|-5-6-|
|-6-6--6-6--10-6-| -6-6-| -6-6--6-6--10-4-|-6-6-|
|-6-6--6-6--8--4-| -6-6-| -6-6--6-6--8--4-|-6-6-|


VERSE:

|---------------| -----|---------------|----------|----------|
|---------------| -----|---------------|----------|----------|
|---------------| -----|---------------|----------|----------|
|-5-6--5-6--5-6-| -5-6-|-5-5-—5-6--5-6-|-5-5--8-6-|-5-6--8-6-|
|-6-6--6-6--5-6-| -6-6-|-6-6—-6-6--3-6-|-6-6--6-4-|-6-6--6-4-|
|-6-6--6-6--3-4-| -6-6-|-6-6--6-6--3-4-|-6-6--6-4-|-6-6--6-4-|


PRE CHORUS:  CHORUS:                                   

|----------| ----------------| -----| ----------------|-----|
|----------| ----------------| -----| ----------------|-----|
|----------| ----------------| -----| ----------------|-----|
|-5-6--5-6-| -5-6--5-6--10-6-| -5-6-| -5-6--5-6--10-6-|-5-6-|
|-6-6--6-6-| -6-6--6-6--10-6-| -6-6-| -6-6--6-6--10-4-|-6-6-|
|-6-6—-6-6-| -6-6--6-6--8--4-| -6-6-| -6-6--6-6--8--4-|-6-6-|


INTERLUDE:

|-------------|-------------| ----------| ----------|
|-------------|-------------| ----------| ----------|
|-------------|-------------| ----------| ----------|
|-6--10--8--6-|-6--10--8--6-| -8-6—-8-6-| -5-6--5-6-|
|-6--10--8--6-|-6--10--8--6-| -8-6--8-6-| -6-6--6-6-|
|-4--8---6--4-|-4--8---6--4-| -6-4--6-4-| -6-6--6-6-|


CHORUS:                            END:

|-------------|    ------|------|  ----------|---|
|-------------|    ------|------|  ----------|---|
|-------------|    ------|------|  ----------|---|
|-6--10--8--6-|    -8--6-|-8--6-|  -5-6--5-6-|-5-|
|-6--10--8--6-|    -8--6-|-8--6-|  -6-6--6-6-|-6-|
|-4--8---6--4-| x4 -6--4-|-6--4-|  -6-6--6-6-|-6-|

Tab by >BaD.TiGeR<

            
            
Suggest correction
Creating personal tab
Creating personal tab
You can edit any tab online and save it as your Personal.

You can edit, replace or remove any tab part or add personal notes – all changes will be seen only by you.

Personal tabs can be accessed anytime from any device, even offline.
Learn more »
comments
print report bad tab
6 comments total. Showing first comments.
+2 reply
xXGuerreroXx 10 Apr 12, 2008 10:44 AM

good tab! but can u post up how to strum the chords and how many time we strum the chords? thanx!

+1 reply
AldainaMusic 10 May 08, 2008 05:48 AM

awesome tab. agreeing with xXGuerreroXx, it would be helpful if you did put that. thanks!

+1 reply
kloeXplaysXbass 52 Jun 29, 2008 06:03 AM

It's got the right pattern. But I think it sounds too sharp (it's in the wrong key). I think it should be half step tuning... but good job!

guest
You may want to rate the tab now too:
select rating
Wanna post a correction for this tab? Suggest correction