Oops, an error
Loading. Please wait.

Dont Jump tab

version 2
version 2

Whole song

Interactive

19,792 views 1 this week
2 commentsread comments
1 2 3 4 5
x 3
add to favorites
×
Save as Personal and add changes to this tab that will be seen only by you. Learn more ›
×
You can save this tab as Personal to edit and correct it or add notes. All changes will be seen only by you. Learn more »
launch autoscroll
font size
0
reset
how to read this tab
guitar tuner
edit
Autoscroll
slow
fast
+/-
esc
set tempo
stop
Author
this is my first tab so enjoy.

i figured out by ear in standard tuning, so it might not be perfect
but it sounds pretty good to me.

any questions email me at: rainbowxxrawrxx@aim.com

-------------------------------------------------------------------------

*UPDATED 12/11/08*
sorry it took me forever to update.


INTRO (CLEAN)
e|-------------------------------------------------------------------------|
b|-------------------------------------------------------------------------|
g|--------------------------------666666666666------------(2X)-------------|
d|----6-------4------2-----1------777777777777-----------------------------|
a|------7-------6------4-----2---------------------------------------------|
e|--0------0-------0-----0-------------------------------------------------|

VERSE (CLEAN)
e|----------------------------------------------------------------------------|
b|----------------------------------------------------------------------------|
g|--------------------------------666666666666------------(4X)----------------|
d|----6-------4------2-----1------777777777777--------------------------------|
a|------7-------6------4-----2------------------------------------------------|
e|--0------0-------0-----0----------------------------------------------------|

CHORUS (DISTORTION)
e|-----------------------------------------------------------------------------|
b|-------------------------------------------(elevens)-------------------------|
g|-------------------------------------1111111111111111111--9-9-9-9-9-9-9-9-9--|
d|--2-4---6----7777777777--9999999999--x-x-x-x-x-x-x-x-x-x--x-x-x-x-x-x-x-x-x--|
a|--2-4---6----7777777777--9999999999--9-9-9-9-9-9-9-9-9-9--7-7-7-7-7-7-7-7-7--|
e|--0-2---4----5555555555--7777777777---(play this 2x)-------------------------|


e|-------------------------------------------------------------------------|
b|-------------------------------------------------------------------------|
g|-------------------------------------------------------------------------|
d|---7777777777--9999999999--2222222222----7777777777----------------------|
a|---7777777777--9999999999--2222222222----5555555555----------------------|
e|---5555555555--7777777777--0000000000----5555555555----------------------|


VERSE (CLEAN)
e|-------------------------------------------------------------------------|
b|-------------------------------------------------------------------------|
g|--------------------------------666666666666--------(4X)-----------------|
d|----6-------4------2-----1------777777777777-----------------------------|
a|------7-------6------4-----2---------------------------------------------|
e|--0------0-------0-----0-------------------------------------------------|

CHORUS (DISTORTION)
e|-----------------------------------------------------------------------------|
b|-------------------------------------------(elevens)-------------------------|
g|-------------------------------------1111111111111111111--9-9-9-9-9-9-9-9-9--|
d|--2-4---6----7777777777--9999999999--x-x-x-x-x-x-x-x-x-x--x-x-x-x-x-x-x-x-x--|
a|--2-4---6----7777777777--9999999999--9-9-9-9-9-9-9-9-9-9--7-7-7-7-7-7-7-7-7--|
e|--0-2---4----5555555555--7777777777---(play this 2x)-------------------------|


e|-------------------------------------------------------------------------|
b|-------------------------------------------------------------------------|
g|-------------------------------------------------------------------------|
d|---7777777777--9999999999--2222222222----7777777777----------------------|
a|---7777777777--9999999999--2222222222----5555555555----------------------|
e|---5555555555--7777777777--0000000000----5555555555----------------------|


e|-------------------------------------------------------------------------|
b|-------------------------------------------------------------------------|
g|-------------------------------------------------------------------------|
d|---7777777777---9999999999-----------------------------------------------|
a|---7777777777---9999999999-----------------------------------------------|
e|---5555555555---7777777777-----------------------------------------------|

BRIDGE (DISTORTION)
e|---------------------------7---7--------------------------------|
b|-----------------------------5---5-4-5--------------------(4X)--|
g|-9999--11-11-11-11--13-13---------------------------------------|
d|-9999--11-11-11-11--13-13---------------------------------------|
a|-7777--9--9--9--9---11-11---------------------------------------|
e|----------------------------------------------------------------|


e|-------------------------------------------------------------------------|
b|-------------------------------------------------------------------------|
g|---- 6-----4------6~-----------------------------------------------------|
d|-------7-----6----6~-----------------------------------------------------|
a|--0------0-----0--4~-----------------------------------------------------|
e|-------------------------------------------------------------------------|

e|---------------------------------------------------------------------------------|
b|---------------------------------------------------------------------------------|
g|---------4---6-4-----4---6-4-----------------------------------------------------|
d|-----------4-----2-4---4---------------------------------------------------------|
a|---------------------------------------------------------------------------------|
e|-0-2-4-5-------------------------------------------------------------------------|


e|-------------------------------------------------------------------------|
b|-------------------------------------------------------------------------|
g|-------------------------------------------------------------------------|
d|----4-4-4-4-4-4-4--------------------------------------------------------|
a|----4-4-4-4-4-4-4--------------------------------------------------------|
e|----2-2-2-2-2-2-2--------------------------------------------------------|


CHORUS (DISTORTION)
e|-----------------------------------------------------------------------------|
b|-------------------------------------------(elevens)-------------------------|
g|-------------------------------------1111111111111111111--9-9-9-9-9-9-9-9-9--|
d|--2-4---6----7777777777--9999999999--x-x-x-x-x-x-x-x-x-x--x-x-x-x-x-x-x-x-x--|
a|--2-4---6----7777777777--9999999999--9-9-9-9-9-9-9-9-9-9--7-7-7-7-7-7-7-7-7--|
e|--0-2---4----5555555555--7777777777----(play this 2x)------------------------|


e|-------------------------------------------------------------------------|
b|-------------------------------------------------------------------------|
g|-------------------------------------------------------------------------|
d|---7777777777--9999999999--2222222222----7777777777----------------------|
a|---7777777777--9999999999--2222222222----5555555555----------------------|
e|---5555555555--7777777777--0000000000----5555555555----------------------|

OUTRO (CLEAN)
e|-------------------------------------------------------------------------|
b|-------------------------------------------------------------------------|
g|-----------------6~------------------------------------------------------|
d|-----6-----4-----6~------------------------------------------------------|
a|-------7-----6---4~------------------------------------------------------|
e|---0-----0---------------------------------------------------------------|

            
            
Suggest correction
Creating personal tab
Creating personal tab
You can edit any tab online and save it as your Personal.

You can edit, replace or remove any tab part or add personal notes – all changes will be seen only by you.

Personal tabs can be accessed anytime from any device, even offline.
Learn more »
Give kudos to tab author, rate the tab!
1 2 3 4 5
comments
print report bad tab
2 comments total.
+1 reply
dumdumdugan31 10 Apr 13, 2009 08:37 AM

i think its pretty good.
5 :)

0 reply
nosdlanod 16 Oct 19, 2009 08:11 PM

It's pretty good, but not close enough :) It should start out like this...

e|--------------------------------------
E|--------------------------------------
G|--------------------------------------
D|----9-------7-------5------4----------
A|------10------9-------7------5--------
E|--0------0-------0------0-------------

XD

guest
You may want to rate the tab now too:
select rating
Wanna post a correction for this tab? Suggest correction