Oops, an error
Loading. Please wait.

Forever Now tab

5,790 views 1 this week
1 commentread comment
1 2 3 4 5
2 more votes to show rating
add to favorites
×
Save as Personal and add changes to this tab that will be seen only by you. Learn more ›
×
You can save this tab as Personal to edit and correct it or add notes. All changes will be seen only by you. Learn more »
launch autoscroll
font size
0
reset
how to read this tab
guitar tuner
edit
Autoscroll
slow
fast
+/-
esc
set tempo
stop
Author
Difficulty
-----------------------------------------------------------------------------
                 Forever Now - Tokio Hotel
-----------------------------------------------------------------------------

Tabbed by:XxGuitarZer0xX

Email:Spongebobs400s@hotmail.com

Tuning:Standard
 

This is 100% correct, so have fun and enjoy!





Intro - Use phaser or flanger - This repeats many times through out the song
e|---------------------------------------------------|
B|---------------------------------------------------|
G|-66/4\6-6/4\6-6/4\6-6/4\6-66/4\6-6/4\6-6/4\6-6/4\6-|
D|-xx-x-x-x-x-x-x-x-x-x-x-x-xx-x-x-x-x-x-x-x-x-x-x-x-| Repeat until verse
A|-66/4\6-6/4\6-6/4\6-6/4\6-66/4\6-6/4\6-6/4\6-6/4\6-|
E|---------------------------------------------------|
 




Verse 1 - Easiest verse ever. just listen when to play it.
e|----------|
B|----------|
G|-------8~-|
D|---8---8~-| Repeat 6 times before chorus
A|-6---6-6~-|
E|----------|

Also there is a second and third guitar in there before the chorus, It is this.

e|-66666666-44444444-33333333-44444444--|
B|-44444444-44444444-44444444-44444444--|
G|--------------------------------------|
D|--------------------------------------|
A|--------------------------------------|
E|--------------------------------------|
I like to Palm Mute this. you don't have to though.
faded in the background
e|---------------------------------------------------|
B|---------------------------------------------------|
G|-66/4\6-6/4\6-6/4\6-6/4\6-66/4\6-6/4\6-6/4\6-6/4\6-|
D|-xx-x-x-x-x-x-x-x-x-x-x-x-xx-x-x-x-x-x-x-x-x-x-x-x-| Repeat until chorus
A|-66/4\6-6/4\6-6/4\6-6/4\6-66/4\6-6/4\6-6/4\6-6/4\6-|
E|---------------------------------------------------|





Chorus
e|-------------------------------------|
B|-------------------------------------|
G|----------------------------66666666-|
D|-99999999-66666666-44444444-66666666-| Repeat once more
A|-99999999-66666666-44444444-44444444-|
E|-77777777-44444444-22222222----------|
 





Intro repeats - Use phaser or flanger - This repeats many times through out the song
e|---------------------------------------------------|
B|---------------------------------------------------|
G|-66/4\6-6/4\6-6/4\6-6/4\6-66/4\6-6/4\6-6/4\6-6/4\6-|
D|-xx-x-x-x-x-x-x-x-x-x-x-x-xx-x-x-x-x-x-x-x-x-x-x-x-| Repeat until verse
A|-66/4\6-6/4\6-6/4\6-6/4\6-66/4\6-6/4\6-6/4\6-6/4\6-|
E|---------------------------------------------------|
 





Verse 2 - This is the only guitar part for the beginning of verse two
e|----|
B|----|
G|-88-|
D|-88-|
A|-66-|
E|----|

Then Play

e|----------------------------|
B|----------------------------|
G|----------------------------|
D|----------------------------|
A|-6666-8888-9999-11-11-11-11-|
E|----------------------------|
 





Chorus
e|-------------------------------------|
B|-------------------------------------|
G|----------------------------66666666-|
D|-99999999-66666666-44444444-66666666-| Repeat 3 more times
A|-99999999-66666666-44444444-44444444-|
E|-77777777-44444444-22222222----------|
 
 



Pre - Bridge - One guitar plays this
e|------------------------------------|
B|------------------------------------|
G|-8888888888888888888888888888888888-|
D|-8888888888888888888888888888888888-|
A|-6666666666666666666666666666666666-|
E|------------------------------------|
PM ********************************** (palm mute all these notes)


Another Guitar Plays this quietly
e|---------------------------------------------------|
B|---------------------------------------------------|
G|-66/4\6-6/4\6-6/4\6-6/4\6-66/4\6-6/4\6-6/4\6-6/4\6-|
D|-xx-x-x-x-x-x-x-x-x-x-x-x-xx-x-x-x-x-x-x-x-x-x-x-x-| Repeat until Bridge
A|-66/4\6-6/4\6-6/4\6-6/4\6-66/4\6-6/4\6-6/4\6-6/4\6-|
E|---------------------------------------------------|




Bridge - Guitar 1
e|-----------9-9------------------|
B|---7-7-------------7-7-----7-7--|
G|-6~-6-6--6~-6-6--6~-6-6--6~-4-4-|
D|--------------------------------| Repeat once more
A|--------------------------------|
E|--------------------------------|

Guitar 2
e|-------------|
B|-------------|
G|-4~-------6~-|
D|-4~-6~-4~-6~-| Repeat over and over during bridge.
A|-2~-6~-4~-4~-|
E|----4~-2~----|




Chorus
e|-------------------------------------|
B|-------------------------------------|
G|----------------------------66666666-|
D|-99999999-66666666-44444444-66666666-| Repeat 6 more times until outro
A|-99999999-66666666-44444444-44444444-|
E|-77777777-44444444-22222222----------|




Outro
e|-------------------------------------|
B|-------------------------------------|
G|-8888888888888888888888888888888888/-|
D|-8888888888888888888888888888888888/-|
A|-6666666666666666666666666666666666/-|
E|-------------------------------------|
PM ********************************** (palm mute all these notes)


Another Guitar Plays this quietly
e|---------------------------------------------------|
B|---------------------------------------------------|
G|-66/4\6-6/4\6-6/4\6-6/4\6-66/4\6-6/4\6-6/4\6-6/4\6-|
D|-xx-x-x-x-x-x-x-x-x-x-x-x-xx-x-x-x-x-x-x-x-x-x-x-x-| Repeat until end of song
A|-66/4\6-6/4\6-6/4\6-6/4\6-66/4\6-6/4\6-6/4\6-6/4\6-|
E|---------------------------------------------------|




There you go 100% correct, have fun and enjoy.

            
            
Suggest correction
Creating personal tab
Creating personal tab
You can edit any tab online and save it as your Personal.

You can edit, replace or remove any tab part or add personal notes – all changes will be seen only by you.

Personal tabs can be accessed anytime from any device, even offline.
Learn more »
Give kudos to tab author, rate the tab!
1 2 3 4 5
comments
print report bad tab
1 comment total.
+1 reply
CandyRock 521 Dec 23, 2009 02:54 AM

I'm sorry I have to bother you again with a correction but I'm doing the bass tab for this song and I saw in the video for the EMAs he actually plays it like this
Tuning Eb (capo 1st fret for studio version if I'm right)

e|------------------------|
B|-3-3-1-3--3-1-3--3-1-3--|
G|-2-2-2-2--2-2-2--2-2-2--|
D|-0-0-0-0--0-0-0--0-0-0--|
A|------------------------|
E|------------------------|

and it repeats throughout the whole verse

guest
You may want to rate the tab now too:
select rating
Wanna post a correction for this tab? Suggest correction