Oops, an error
Loading. Please wait.

Geh tab

version 1
version 1

Whole song

Interactive

14,132 views 6 this week
2 commentsread comments
1 2 3 4 5
x 4
add to favorites
×
Save as Personal and add changes to this tab that will be seen only by you. Learn more ›
×
You can save this tab as Personal to edit and correct it or add notes. All changes will be seen only by you. Learn more »
launch autoscroll
font size
0
reset
how to read this tab
guitar tuner
edit
Autoscroll
slow
fast
+/-
esc
set tempo
stop
Author
----------------------------------------------------------------------------
                             GEH - Tokio Hotel
----------------------------------------------------------------------------
Tabbed by: Avrill
e-mail: avrill_xx@yahoo.com (je parle aussi français/ik spreek nederlands - en vlaams xD)

   [corrected August 10th 2008]
   [geüpdatet 9 maart/mars/märz 2009] 

I'm not good at writing strumming patterns, so you just have to find it yourself :) 

Tuning: d#A#F#C#G#D#


Intro:
guitar 1:
        Am         C         G       Em
d#|------------------------------------------|
A#|---11111111--1111111--00000000--00000000--|
F#|---22222222--2222222--00000000--00000000--|
C#|---22222222--3333333--00000000--22222222--|
G#|------------------------------------------|
D#|------------------------------------------|

guitar 2
d#|--------5---------------3--------|
A#|------------5--------------0-----|
F#|----------------5-------------0--|
C#|---------------------------------|
G#|---------------------------------|
D#|---------------------------------|

Verse:
Tage gehen vorbei, ohne da zu sein
guitar 1:
        Am        C        G          Em
d#|------------------------------------------|
A#|---11111111--1111111--00000000--00000000--|
F#|---22222222--2222222--00000000--00000000--| x2
C#|---22222222--3333333--00000000--22222222--|
G#|------------------------------------------|
D#|------------------------------------------|

guitar 1
d#|--------------------------------------|
A#|--------------------------------------|
F#|---9-99-7-9---------------------------|
C#|---7-77-7-7-77777--9-99-7-9--9999999--| x2
G#|------------88888--7-77-7-7--7777777--|
D#|-----------------------------0000000--|

geh, geh
guitar 1:
d#|------------------------------------------|
A#|---11111111--1111111--00000000--00000000--|
F#|---22222222--2222222--00000000--00000000--| 
C#|---22222222--3333333--00000000--22222222--|
G#|------------------------------------------|
D#|------------------------------------------|

guitar 2
d#|--------5---------------3--------|
A#|------------5--------------0-----|
F#|----------------5-------------0--|
C#|---------------------------------|
G#|---------------------------------|
D#|---------------------------------|

wir haben nichts falsch gemacht..
guitar 1:
d#|------------------------------------------|
A#|---11111111--1111111--00000000--00000000--|
F#|---22222222--2222222--00000000--00000000--| x2
C#|---22222222--3333333--00000000--22222222--|
G#|------------------------------------------|
D#|------------------------------------------|

guitar 1
d#|--------------------------------------|
A#|--------------------------------------|
F#|---9-99-7-9---------------------------|
C#|---7-77-7-7-77777--9-99-7-9--9999999--| x2
G#|------------88888--7-77-7-7--7777777--|
D#|-----------------------------0000000--|

geh, geh
guitar 1:
d#|------------------------------------00----|
A#|---11111111--1111111--00000000--000-11----|
F#|---22222222--2222222--00000000--000-22----| 
C#|---22222222--3333333--00000000--222-22----|
G#|------------------------------------------|
D#|------------------------------------------|

guitar 2
d#|--------5---------------3--------|
A#|------------5--------------0-----|
F#|----------------5-------------0--|
C#|---------------------------------|
G#|---------------------------------|
D#|---------------------------------|


CHORUS
Geh, lass uns hinter dir und mir
guitar 1
      C       G      G     Dm       Am
d#|--0-0---3-3-3-3--3-3---1-1---0-0-0-0--0-0--|
A#|--1-1---0-0-0-0--0-0---3-3---1-1-1-1--1-1--|
F#|--0-0---0-0-0-0--0-0---2-2---2-2-2-2--2-2--|
C#|--2-2---0-0-0-0--0-0---0-0---2-2-2-2--2-2--|
G#|--3-3---2-2-2-2--2-2---------0-0-0-0--0-0--|
D#|--------3-3-3-3--3-3-----------------------|


Versuch nicht zu verstehen, warum es nicht mehr geht
guitar 1
      C        G     G     Dm      Am     G
d#|--0-0---3-3-3-3--3-3---1-1---0-0-0-0--3-3--|
A#|--1-1---0-0-0-0--0-0---3-3---1-1-1-1--0-0--|
F#|--0-0---0-0-0-0--0-0---2-2---2-2-2-2--0-0--|
C#|--2-2---0-0-0-0--0-0---0-0---2-2-2-2--0-0--|
G#|--3-3---2-2-2-2--2-2---------0-0-0-0--2-2--|
D#|--------3-3-3-3--3-3------------------3-3--|

Geh,versuch uns beide zu verlieren
guitar 1
     C       G       G     Dm     Am
d#|--0-0---3-3-3-3--3-3---1-1---0-0-0-0--0-0--|
A#|--1-1---0-0-0-0--0-0---3-3---1-1-1-1--1-1--|
F#|--0-0---0-0-0-0--0-0---2-2---2-2-2-2--2-2--|
C#|--2-2---0-0-0-0--0-0---0-0---2-2-2-2--2-2--|
G#|--3-3---2-2-2-2--2-2---------0-0-0-0--0-0--|
D#|--------3-3-3-3--3-3-----------------------|

Für uns wird´s erst weitergehen wenn wir uns nicht mehr sehen
guitar 1
       C     G       G      Dm             Am
d#|---0-0--3-3-3-3--3-3---1-1-1-1-1-1-1---0-0--|
A#|---1-1--0-0-0-0--0-0---3-3-3-3-3-3-3---1-1--|
F#|---0-0--0-0-0-0--0-0---2-2-2-2-2-2-2---2-2--|
C#|---2-2--0-0-0-0--0-0---0-0-0-0-0-0-0---2-2--|
G#|---3-3--2-2-2-2--2-2-------------------0-0--|
D#|--------3-3-3-3--3-3------------------------|

Geh, geh!
guitar 1
      C     G       Am
d#|--0-0---3-3---0-0-0-0-0-0-0--|
A#|--1-1---0-0---1-1-1-1-1-1-1--|
F#|--0-0---0-0---2-2-2-2-2-2-2--|
C#|--2-2---0-0---2-2-2-2-2-2-2--|
G#|--3-3---2-2---0-0-0-0-0-0-0--|
D#|--------3-3------------------|


POST CHORUS
geh
guitar 1:
d#|------------------------------------------|
A#|---11111111--1111111--00000000--00000000--|
F#|---22222222--2222222--00000000--00000000--|
C#|---22222222--3333333--00000000--22222222--|
G#|------------------------------------------|
D#|------------------------------------------|

guitar 2
d#|--------5---------------3--------|
A#|------------5--------------0-----|
F#|----------------5-------------0--|
C#|---------------------------------|
G#|---------------------------------|
D#|---------------------------------|


VERSE:
Tu es für dich und mich...
guitar 1:
        Am        C        G          Em
d#|------------------------------------------|
A#|---11111111--1111111--00000000--00000000--|
F#|---22222222--2222222--00000000--00000000--| x2
C#|---22222222--3333333--00000000--22222222--|
G#|------------------------------------------|
D#|------------------------------------------|

guitar 1
d#|--------------------------------------|
A#|--------------------------------------|
F#|---9-99-7-9---------------------------|
C#|---7-77-7-7-77777--9-99-7-9--9999999--| x2
G#|------------88888--7-77-7-7--7777777--|
D#|-----------------------------0000000--|

geh, geh
guitar 1:
d#|------------------------------------------|
A#|---11111111--1111111--00000000--00000000--|
F#|---22222222--2222222--00000000--00000000--| 
C#|---22222222--3333333--00000000--22222222--|
G#|------------------------------------------|
D#|------------------------------------------|

guitar 2
d#|--------5---------------3--------|
A#|------------5--------------0-----|
F#|----------------5-------------0--|
C#|---------------------------------|
G#|---------------------------------|
D#|---------------------------------|

Tage gehen vorbei, ohne da zu sein...
guitar 1:
d#|------------------------------------------|
A#|---11111111--1111111--00000000--00000000--|
F#|---22222222--2222222--00000000--00000000--| x2
C#|---22222222--3333333--00000000--22222222--|
G#|------------------------------------------|
D#|------------------------------------------|

guitar 2
d#|--------------------------------------|
A#|--------------------------------------|
F#|---9-99-7-9---------------------------|
C#|---7-77-7-7-77777--9-99-7-9--9999999--| x2
G#|------------88888--7-77-7-7--7777777--|
D#|-----------------------------0000000--|

geh, geh
guitar 1:
d#|------------------------------------00----|
A#|---11111111--1111111--00000000--000-11----|
F#|---22222222--2222222--00000000--000-22----| 
C#|---22222222--3333333--00000000--222-22----|
G#|------------------------------------------|
D#|------------------------------------------|

guitar 2
d#|--------5---------------3--------|
A#|------------5--------------0-----|
F#|----------------5-------------0--|
C#|---------------------------------|
G#|---------------------------------|
D#|---------------------------------|


CHORUS
Geh, lass uns hinter dir und mir
guitar 1
      C       G      G     Dm       Am
d#|--0-0---3-3-3-3--3-3---1-1---0-0-0-0--0-0--|
A#|--1-1---0-0-0-0--0-0---3-3---1-1-1-1--1-1--|
F#|--0-0---0-0-0-0--0-0---2-2---2-2-2-2--2-2--|
C#|--2-2---0-0-0-0--0-0---0-0---2-2-2-2--2-2--|
G#|--3-3---2-2-2-2--2-2---------0-0-0-0--0-0--|
D#|--------3-3-3-3--3-3-----------------------|


Versuch nicht zu verstehen Warum es nicht mehr geht
guitar 1
      C        G     G     Dm      Am     G
d#|--0-0---3-3-3-3--3-3---1-1---0-0-0-0--3-3--|
A#|--1-1---0-0-0-0--0-0---3-3---1-1-1-1--0-0--|
F#|--0-0---0-0-0-0--0-0---2-2---2-2-2-2--0-0--|
C#|--2-2---0-0-0-0--0-0---0-0---2-2-2-2--0-0--|
G#|--3-3---2-2-2-2--2-2---------0-0-0-0--2-2--|
D#|--------3-3-3-3--3-3------------------3-3--|

Geh,versuch uns beide zu verlieren
guitar 1
     C       G       G     Dm     Am
d#|--0-0---3-3-3-3--3-3---1-1---0-0-0-0--0-0--|
A#|--1-1---0-0-0-0--0-0---3-3---1-1-1-1--1-1--|
F#|--0-0---0-0-0-0--0-0---2-2---2-2-2-2--2-2--|
C#|--2-2---0-0-0-0--0-0---0-0---2-2-2-2--2-2--|
G#|--3-3---2-2-2-2--2-2---------0-0-0-0--0-0--|
D#|--------3-3-3-3--3-3-----------------------|

Für uns wird´s erst weitergehen wenn wir uns nicht mehr sehen
guitar 1
       C     G       G      Dm             Am
d#|---0-0--3-3-3-3--3-3---1-1-1-1-1-1-1---0-0--|
A#|---1-1--0-0-0-0--0-0---3-3-3-3-3-3-3---1-1--|
F#|---0-0--0-0-0-0--0-0---2-2-2-2-2-2-2---2-2--|
C#|---2-2--0-0-0-0--0-0---0-0-0-0-0-0-0---2-2--|
G#|---3-3--2-2-2-2--2-2-------------------0-0--|
D#|--------3-3-3-3--3-3------------------------|

Geh, geh!
guitar 1
      C     G       Am
d#|--0-0---3-3---0-0-0-0-0-0-0--|
A#|--1-1---0-0---1-1-1-1-1-1-1--|
F#|--0-0---0-0---2-2-2-2-2-2-2--|
C#|--2-2---0-0---2-2-2-2-2-2-2--|
G#|--3-3---2-2---0-0-0-0-0-0-0--|
D#|--------3-3------------------|

Bridge
Ich brech´ das Licht ,die Schatten fall´n auf mich
guitar 1
      F      G       G     Em     Am
d#|--1-1---3-3-3-3--3-3---0-0---0-0-0-0--0-0--|
A#|--1-1---0-0-0-0--0-0---0-0---1-1-1-1--1-1--|
F#|--2-2---0-0-0-0--0-0---0-0---2-2-2-2--2-2--|
C#|--3-3---0-0-0-0--0-0---2-2---2-2-2-2--2-2--|
G#|--------2-2-2-2--2-2---2-2---0-0-0-0--0-0--|
D#|--------3-3-3-3--3-3---0-0-----------------|

Ich seh uns nicht   alle Schatten fall´n auf mich
guitar 1
      F       G       G     Em     Am    
d#|--1-1---3-3-3-3--3-3---0-0---0-0-0-0--0-0--|
A#|--1-1---0-0-0-0--0-0---0-0---1-1-1-1--1-1--|
F#|--2-2---0-0-0-0--0-0---0-0---2-2-2-2--2-2--|
C#|--3-3---0-0-0-0--0-0---2-2---2-2-2-2--2-2--|
G#|--------2-2-2-2--2-2---2-2---0-0-0-0--0-0--|
D#|--------3-3-3-3--3-3---0-0-----------------|


Auf mich   alle Schatten fallen auf mich
guitar 1
        Dm           G                 Em7           Am
d#|--1--1-1-1-1-1---3--3-3-3-3-3---0--0-0-0-0-0--0--0-0-0-0-0--|
A#|--3--3-3-3-3-3---0--0-0-0-0-0---3--3-3-3-3-3--1--1-1-1-1-1--|
F#|--2--2-2-2-2-2---0--0-0-0-0-0---0--0-0-0-0-0--2--2-2-2-2-2--|
C#|--0--0-0-0-0-0---0--0-0-0-0-0---2--2-2-2-2-2--2--2-2-2-2-2--|
G#|-----------------2--2-2-2-2-2---2--2-2-2-2-2--0--0-0-0-0-0--|
D#|-----------------3--3-3-3-3-3---0--0-0-0-0-0----------------|


Tage gehen vorbei Ohne da zu sein
guitar 1:
d#|------------------------------------------|
A#|---11111111--1111111--00000000--00000000--|
F#|---22222222--2222222--00000000--00000000--|
C#|---22222222--3333333--00000000--22222222--|
G#|------------------------------------------|
D#|------------------------------------------|

guitar 1
d#|--------------------------------------|
A#|--------------------------------------|
F#|---9-99-7-9---------------------------|
C#|---7-77-7-7-77777--9-99-7-9--9999999--| x2
G#|------------88888--7-77-7-7--7777777--|
D#|-----------------------------0000000--|


Das ist alles was uns bleibt
guitar 1
          G             E
d#|---3-3-3-3-3----0-0-0-0-0-0----|
A#|---0-0-0-0-0----0-0-0-0-0-0----|
F#|---0-0-0-0-0----1-1-1-1-1-1----|
C#|---0-0-0-0-0----2-2-2-2-2-2----|
G#|---2-2-2-2-2----2-2-2-2-2-2----|
D#|---3-3-3-3-3----0-0-0-0-0-0----|


CHORUS

Wenn du gehst, wenn du jetz gehst
      C      G       G     Dm       Am
d#|--0-0---3-3-3-3--3-3---1-1---0-0-0-0--0-0--|
A#|--1-1---0-0-0-0--0-0---3-3---1-1-1-1--1-1--|
F#|--0-0---0-0-0-0--0-0---2-2---2-2-2-2--2-2--|
C#|--2-2---0-0-0-0--0-0---0-0---2-2-2-2--2-2--|
G#|--3-3---2-2-2-2--2-2---------0-0-0-0--0-0--|
D#|--------3-3-3-3--3-3-----------------------|


Versuch nicht zu verstehen, warum es nicht mehr geht
     C         G     G     Dm     Am      G
d#|--0-0---3-3-3-3--3-3---1-1---0-0-0-0--3-3--|
A#|--1-1---0-0-0-0--0-0---3-3---1-1-1-1--0-0--|
F#|--0-0---0-0-0-0--0-0---2-2---2-2-2-2--0-0--|
C#|--2-2---0-0-0-0--0-0---0-0---2-2-2-2--0-0--|
G#|--3-3---2-2-2-2--2-2---------0-0-0-0--2-2--|
D#|--------3-3-3-3--3-3------------------3-3--|


Geh,versuch uns beide zu verlieren
     C       G       G     Dm      Am   
d#|--0-0---3-3-3-3--3-3---1-1---0-0-0-0--0-0--|
A#|--1-1---0-0-0-0--0-0---3-3---1-1-1-1--1-1--|
F#|--0-0---0-0-0-0--0-0---2-2---2-2-2-2--2-2--|
C#|--2-2---0-0-0-0--0-0---0-0---2-2-2-2--2-2--|
G#|--3-3---2-2-2-2--2-2---------0-0-0-0--0-0--|
D#|--------3-3-3-3--3-3-----------------------|


Für uns wird´s erst weitergehen wenn wir uns nicht mehr sehen
       C      G      G          Dm         Am
d#|---0-0--3-3-3-3--3-3---1-1-1-1-1-1-1---0-0--|
A#|---1-1--0-0-0-0--0-0---3-3-3-3-3-3-3---1-1--|
F#|---0-0--0-0-0-0--0-0---2-2-2-2-2-2-2---2-2--|
C#|---2-2--0-0-0-0--0-0---0-0-0-0-0-0-0---2-2--|
G#|---3-3--2-2-2-2--2-2-------------------0-0--|
D#|--------3-3-3-3--3-3------------------------|

Geh, geh!
      C     G        Am
d#|--0-0---3-3---0-0-0-0-0-0-0--|
A#|--1-1---0-0---1-1-1-1-1-1-1--|
F#|--0-0---0-0---2-2-2-2-2-2-2--|
C#|--2-2---0-0---2-2-2-2-2-2-2--|
G#|--3-3---2-2---0-0-0-0-0-0-0--|
D#|--------3-3------------------|


Outro:
guitar 1:
d#|-----------------------|
A#|-----------------------|
F#|---9999-7-7-9999-77-9--|
C#|---7777-7-7-7777-77-7--|
G#|---7777-7-7-7777-77-7--|
D#|-----------------------|


Tage gehen vorbei  ohne da zu sein...
guitar 1:
d#|-----------------------|
A#|-----------------------|
F#|---9999-7-7-9999-77-9--|
C#|---7777-7-7-7777-77-7--| x3
G#|---7777-7-7-7777-77-7--|
D#|-----------------------|

Bleib
d#|----0----|
A#|----0----|
F#|----9----|
C#|----9----|
G#|----7----|
D#|---------|


Have fun! :)

            
            
Suggest correction
Creating personal tab
Creating personal tab
You can edit any tab online and save it as your Personal.

You can edit, replace or remove any tab part or add personal notes – all changes will be seen only by you.

Personal tabs can be accessed anytime from any device, even offline.
Learn more »
comments
print report bad tab
2 comments total.
-1 reply
susiberli 27 Jan 24, 2008 03:59 AM

Avrill, I love you :D Thank you soooooooo much for this tab, it's great!

-1 reply
Dark Angel21 31 Nov 11, 2008 08:04 AM

OMG thank youuuuuuuuuuuuuuu for this tab it's amazing

guest
You may want to rate the tab now too:
select rating
Wanna post a correction for this tab? Suggest correction