Oops, an error
Loading. Please wait.

In Your Shadow I Can Shine tab

version 1
version 1

Whole song

24,546 views 3 this week
3 commentsread comments
1 2 3 4 5
2 more votes to show rating
add to favorites
×
Save as Personal and add changes to this tab that will be seen only by you. Learn more ›
×
You can save this tab as Personal to edit and correct it or add notes. All changes will be seen only by you. Learn more »
launch autoscroll
font size
0
reset
how to read this tab
guitar tuner
edit
Autoscroll
slow
fast
+/-
esc
set tempo
stop
Beautiful song! =]
if you want to watch my video as a reference the link's here:
http://www.youtube.com/watch?v=Ql0BNvzXqss
Enjoy!

Tuning: 1/2 step down! (e♭, a♭, d♭, g♭, b♭, e♭)

Intro:
e|--------------|--------------|--------------|--------------|
b|------0-----4-|------0-----0-|------0-----0-|------0-----0-|
g|------4-----0-|------4-----4-|------4-----4-|------4-----4-|
d|--------------|--------------|--------------|--------------|
a|--------------|--------------|--2-2---2-2---|--2-2---2-2---|
e|--4-4---4-4---|--0-0---0-0---|--------------|--------------|  x2

Verse 1:
e|--------------|--------------|--------------|--------------|
b|------0-----4-|------0-----0-|------0-----0-|------0-----0-|
g|------4-----0-|------4-----4-|------4-----4-|------4-----4-|
d|--------------|--------------|--------------|--------------|
a|--------------|--------------|--2-2---2-2---|--2-2---2-2---|
e|--4-4---4-4---|--0-0---0-0---|--------------|--------------|  x4
             I    Hate        my      life     I can’t… 

e|--------------|--------------|--------------|--------------|
b|------0-----4-|------0-----0-|------0-----0-|------0-----0-|
g|------4-----0-|------4-----4-|------4-----4-|------4-----4-|
d|--------------|--------------|--------------|--------------|
a|--------------|--------------|--------------|--6-6---6-6---|
e|--0-0---0-0---|--2-2---2-2---|--4-4---4-4---|--------------|
 out of touch out of time just get lost without a sign as long as

e|--------------|--------------|
b|------0-----4-|------0-----0-|
g|------4-----0-|------4-----4-|
d|--------------|--------------|
a|--------------|--------------|
e|--0-0---0-0---|--2-2---2-2---|
 you’ll stay by my side in your shadow I can

e|--------------|--------------|--------------|--------------|
b|------0-----4-|------0-----0-|------0-----0-|------0-----0-|
g|------4-----0-|------4-----4-|------4-----4-|------4-----4-|
d|--------------|--------------|--------------|--------------|
a|--------------|--------------|--2-2---2-2---|--2-2---2-2---|
e|--4-4---4-4---|--0-0---0-0---|--------------|--------------|
shine…

e|--------------|--------------|
b|------0-----4-|------0-----0-|
g|------4-----0-|------4-----4-|
d|--------------|--------------|
a|--------------|--------------|
e|--4-4---4-4---|--0-0---0-0---|


Verse 2:
e|--------------|--------------|--------------|--------------|
b|------0-----4-|------0-----0-|------0-----0-|------0-----0-|
g|------4-----0-|------4-----4-|------4-----4-|------4-----4-|
d|--------------|--------------|--------------|--------------|
a|--------------|--------------|--2-2---2-2---|--2-2---2-2---| 
e|--4-4---4-4---|--0-0---0-0---|--------------|--------------| x2
        you see my soul…

e|--------------|--------------|--------------|--------------|
b|------0-----4-|------0-----0-|------0-----0-|------0-----0-|
g|------4-----0-|------4-----4-|------4-----4-|------4-----4-|
d|--------------|--------------|--------------|--------------|
a|--------------|--------------|--------------|--6-6---6-6---|
e|--0-0---0-0---|--2-2---2-2---|--4-4---4-4---|--------------|
 into the dark..

e|--------------|--------------|
b|------0-----4-|------0-----0-|
g|------4-----0-|------4-----4-|
d|--------------|--------------|
a|--------------|--------------|
e|--0-0---0-0---|--2-2---2-2---|
 you’re the sun and I’m the moon


Chorus 2:
e|---------------|---------------|---------------|---------------|
b|---------------|---------------|---------------|---------------|
g|---------------|---------------|---------------|---------------|
d|---------------|---------------|---------------|---------------|
a|---------------|---------------|2-2-2-2-2-2-2-2|6-6-6-6-6-6-6-6|
e|4-4-4-4-4-4-4-4|0-0-0-0-0-0-0-0|---------------|---------------|

e|---------------|---------------|---------------|---------------|
b|---------------|---------------|---------------|---------------|
g|---------------|---------------|---------------|---------------|
d|---------------|---------------|---------------|---------------|
a|---------------|---------------|---------------|---------------|
e|4-4-4-4-4-4-4-4|0-0-0-0-0-0-0-0|2-2-2-2-2-2-2-2|2-2-2-2-2-2-2-2|


Bridge:
e|---------------|---------------|---------------|---------------|
b|---------------|---------------|---------------|---------------|
g|---------------|---------------|---------------|---------------|
d|6-6-6-6-6-6-6-6|2-2-2-2-2-2-2-2|4-4-4-4-4-4-4-4|4-4-4-4-4-4-4-4|
a|4-4-4-4-4-4-4-4|0-0-0-0-0-0-0-0|2-2-2-2-2-2-2-2|2-2-2-2-2-2-2-2|
e|---------------|---------------|---------------|---------------| x2

Chorus 3:
e|---------------|---------------|---------------|---------------|
b|---------------|---------------|---------------|---------------|
g|---------------|---------------|---------------|---------------|
d|6-6-6-6-6-6-6-6|2-2-2-2-2-2-2-2|4-4-4-4-4-4-4-4|---------------|
a|4-4-4-4-4-4-4-4|0-0-0-0-0-0-0-0|2-2-2-2-2-2-2-2|6-6-6-6-6-6-6-6|
e|---------------|---------------|---------------|4-4-4-4-4-4-4-4|

e|---------------|---------------|---------------|---------------|
b|---------------|---------------|---------------|---------------|
g|---------------|---------------|---------------|---------------|
d|6-6-6-6-6-6-6-6|2-2-2-2-2-2-2-2|4-4-4-4-4-4-4-4|4-4-4-4-4-4-4-4|
a|4-4-4-4-4-4-4-4|0-0-0-0-0-0-0-0|2-2-2-2-2-2-2-2|2-2-2-2-2-2-2-2|
e|---------------|---------------|---------------|---------------|

e|---------------|---------------|---------------|---------------|
b|---------------|---------------|---------------|---------------|
g|---------------|---------------|---------------|---------------|
d|6-6-6-6-6-6-6-6|2-2-2-2-2-2-2-2|4-4-4-4-4-4-4-4|---------------|
a|4-4-4-4-4-4-4-4|0-0-0-0-0-0-0-0|2-2-2-2-2-2-2-2|6-6-6-6-6-6-6-6|
e|---------------|---------------|---------------|4-4-4-4-4-4-4-4|

e|---------------|---------------|---------------|---------------|
b|---------------|---------------|---------------|---------------|
g|---------------|---------------|---------------|---------------|
d|6-6-6-6-6-6-6-6|2-2-2-2-2-2-2-2|4-4-4-4-4-4-4-4|4-4-4-4-4-4-4-4|
a|4-4-4-4-4-4-4-4|0-0-0-0-0-0-0-0|2-2-2-2-2-2-2-2|2-2-2-2-2-2-2-2|
e|---------------|---------------|---------------|---------------|

            
            
Suggest correction
Creating personal tab
Creating personal tab
You can edit any tab online and save it as your Personal.

You can edit, replace or remove any tab part or add personal notes – all changes will be seen only by you.

Personal tabs can be accessed anytime from any device, even offline.
Learn more »
Give kudos to tab author, rate the tab!
1 2 3 4 5
comments
print report bad tab
3 comments total.
0 reply
TwilightBizarre 392 Oct 26, 2009 09:28 AM

I thin intro goes like this
e|--------------|--------------|--------------|--------------|
b|------0-----0-|------0-----0-|------0-----0-|------0-----0-|
g|------4-----4-|------4-----4-|------4-----4-|------4-----4-|
d|--------------|--------------|--------------|--------------|
a|--------------|--------------|--2-2---2-2---|--2-2---2-2---|
e|--4-4---4-4---|--0-0---0-0---|--------------|--------------|

0 reply
tokiohotelluvr 219 Nov 02, 2009 07:17 AM

I Really Like This Tab :D
But i actually play it a different way...
i just think it sounds a little bit better But Yours R0CKS!! :)
but if i may ask how do you play the part were your finger goes to 6
i mean i can play it but my finger won't reach that far! lol

0 reply
JackiesGuitar 31 Nov 05, 2009 12:18 PM

twilightbizarre: yeah, that's what i meant... oops!!

tokiohotelluvr: i use my pinky finger for that.
my middle finger holds the 4 on the g string down.
& my pointer finger does all the fingering on the 6th string.
does that make sense?

guest
You may want to rate the tab now too:
select rating
Wanna post a correction for this tab? Suggest correction