Oops, an error
Loading. Please wait.

In Your Shadow I Can Shine tab

version 2
version 2

Whole song

10,654 views 6 this week
no commentswrite comment
1 2 3 4 5
x 3
add to favorites
×
Save as Personal and add changes to this tab that will be seen only by you. Learn more ›
×
You can save this tab as Personal to edit and correct it or add notes. All changes will be seen only by you. Learn more »
launch autoscroll
font size
0
reset
how to read this tab
guitar tuner
edit
Autoscroll
slow
fast
+/-
esc
set tempo
stop
Author
this is my first tab, but i'm pretty sure its more accurate than the other tab thats 
posted. The tone and pitch of the other tab sounded a little off so i changed it up a bit 
so it matched that of the song.
thanks for checking it out!  and leave me some feedback :D


Tuning: drop D (D-A-D-G-B-E)

Intro:
e|--------------|--------------|--------------|--------------|
b|--------------|--------------|--------------|--------------|
g|------3-----3-|------3-----3-|------3-----3-|------3-----3-|
d|------3-----3-|------3-----3-|------3-----3-|------3-----3-|
a|--------------|--------------|--1-1---1-1---|--1-1---1-1---|
d|--5-5---5-5---|--1-1---1-1---|--------------|--------------|  x2

Verse 1:
e|--------------|--------------|--------------|--------------|
b|--------------|--------------|--------------|--------------|
g|------3-----3-|------3-----3-|------3-----3-|------3-----3-|
d|------3-----3-|------3-----3-|------3-----3-|------3-----3-|
a|--------------|--------------|--1-1---1-1---|--1-1---1-1---|
d|--5-5---5-5---|--1-1---1-1---|--------------|--------------|  x4
I              Hate        my            life
I can’t…                     out of...

e|--------------|--------------|--------------|--------------|
b|--------------|--------------|--------------|--------------|
g|------3-----3-|------3-----3-|------3-----3-|------3-----3-|
d|------3-----3-|------3-----3-|------3-----3-|------3-----3-|
a|--------------|--------------|--------------|--5-5---5-5---|
d|--1-1---1-1---|--3-3---3-3---|--5-5---5-5---|--------------|
   touch           out of        time             just get lost without a
         sign       as long as

e|--------------|--------------|
b|--------------|--------------|
g|------3-----3-|------3-----3-|
d|------3-----3-|------3-----3-|
a|--------------|--------------|
d|--1-1---1-1---|--3-3---3-3---|
       you’ll stay by my side in your shadow I can

e|--------------|--------------|--------------|--------------|
b|--------------|--------------|--------------|--------------|
g|------3-----3-|------3-----3-|------3-----3-|------3-----3-|
d|------3-----3-|------3-----3-|------3-----3-|------3-----3-|
a|--------------|--------------|--------------|--------------|
d|--5-5---5-5---|--1-1---1-1---|--3-3---3-3---|--0-0---0-0---|
shine…                                      in your shadow i can shine
in your shadow

e|--------------|--------------|
b|--------------|--------------|
g|------3-----3-|------3-----3-|
d|------3-----3-|------3-----3-|
a|--------------|--------------|
d|--5-5---5-5---|--1-1---1-1---|
i can shine                                                  shine...

Verse 2:
e|--------------|--------------|--------------|--------------|
b|--------------|--------------|--------------|--------------|
g|------3-----3-|------3-----3-|------3-----3-|------3-----3-|
d|------3-----3-|------3-----3-|------3-----3-|------3-----3-|
a|--------------|--------------|--1-1---1-1---|--1-1---1-1---|
d|--5-5---5-5---|--1-1---1-1---|--------------|--------------| x2
        you see my soul…

e|--------------|--------------|--------------|--------------|
b|--------------|--------------|--------------|--------------|
g|------3-----3-|------3-----3-|------3-----3-|------3-----3-|
d|------3-----3-|------3-----3-|------3-----3-|------3-----3-|
a|--------------|--------------|--------------|--5-5---5-5---|
d|--1-1---1-1---|--3-3---3-3---|--5-5---5-5---|--------------|
 into the dark..

e|--------------|--------------|
b|--------------|--------------|
g|------3-----3-|------3-----3-|
d|------3-----3-|------3-----3-|
a|--------------|--------------|
d|--1-1---1-1---|--3-3---3-3---|
 you’re the sun and I’m the moon               in your shadow i can


e|--------------|--------------|--------------|--------------|
b|--------------|--------------|--------------|--------------|
g|------3-----3-|------3-----3-|------3-----3-|------3-----3-|
d|------3-----3-|------3-----3-|------3-----3-|------3-----3-|
a|--------------|--------------|--------------|--------------|
d|--5-5---5-5---|--1-1---1-1---|--3-3---3-3---|--0-0---0-0---|
shine…                                      in your shadow i can shine
in your shadow

e|--------------|--------------|--------------|--------------|----------------|
b|--------------|--------------|--------------|--------------|----------------|
g|------3-----3-|------3-----3-|--------------|--------------|----------------|
d|------3-----3-|------3-----3-|------3-----3-|------3-----3-|------3---------|
a|--------------|--------------|------3-----3-|------3-----3-|------3---------|
d|--5-5---5-5---|--1-1---1-1---|--3-3---3-3---|--3-3---3-3---|--3-3-----------|
i can shine                                                  shine....


play till the end
e|---------------|---------------|---------------|---------------|
b|---------------|---------------|---------------|---------------|
g|---------------|---------------|---------------|---------------|
d|6-6-6-6-6-6-6-6|2-2-2-2-2-2-2-2|4-4-4-4-4-4-4-4|4-4-4-4-4-4-4-4|
a|4-4-4-4-4-4-4-4|0-0-0-0-0-0-0-0|2-2-2-2-2-2-2-2|2-2-2-2-2-2-2-2|
d|---------------|---------------|---------------|---------------|

            
            
Suggest correction
Creating personal tab
Creating personal tab
You can edit any tab online and save it as your Personal.

You can edit, replace or remove any tab part or add personal notes – all changes will be seen only by you.

Personal tabs can be accessed anytime from any device, even offline.
Learn more »
Give kudos to tab author, rate the tab!
1 2 3 4 5
comments
print report bad tab
guest
You may want to rate the tab now too:
select rating
Wanna post a correction for this tab? Suggest correction