Oops, an error
Loading. Please wait.
We have an official Monsoon tab made by UG professional guitarists. Check out the tab »
×
68,981 views 27 this week
9 commentsread comments
1 2 3 4 5
x 10
add to favorites
×
Save as Personal and add changes to this tab that will be seen only by you. Learn more ›
×
You can save this tab as Personal to edit and correct it or add notes. All changes will be seen only by you. Learn more »
launch autoscroll
font size
0
reset
how to read this tab
guitar tuner
backing track
0:00
0:00
edit
Autoscroll
slow
fast
+/-
esc
set tempo
stop
Tokio Hotel "Monsoon".

Enjoy.

Riff 1:
 |------Run A------|------Run B------|
   e e e e e e e e   e e e e e e e e
e|-----------------|-----------------|
B|-----------------|-----------------|
G|-----------------|-----------------|
D|-6-6-6-7-7-7-6-6-|-2-2-2-3-3-3-2-2-|
A|-7-7-7-7-7-7-7-7-|-3-3-3-3-3-3-3-3-|
E|-----------------|-----------------|

Riff 2:
   e e e e e e e e   e e e e e e e e
e|-----------------|-----------------|
B|-----------------|-----------------|
G|-----------------|-----------------|
D|-----------------|-----------------|
A|-7-7-7-7-7-7-7-7-|-2-2-2-2-2-2-2-2-|
E|-5-5-5-5-5-5-5-5-|-3-3-3-3-3-3-3-3-|

Riff 3:
   e e e e e e e e   e e e e e e e e
e|-----------------|-----------------|
B|-----------------|-----------------|
G|-----------------|-----------------|
D|-----------------|-----------------|
A|-5-5-5-5-5-5-5-5-|-4-4-4-4-4-4-4-4-|
E|-5-5-5-5-5-5-5-5-|-5-5-5-5-5-5-5-5-|

Riff 4:
   e e e e e e e e   e e e e e e e e   e e e e e e e e   e e e e e e e e
e|-3-----3-----3---|-2-----2-----2---|-3-----3-----3---|-2-----2-----2---|
B|---5-----5-----5-|---3-----3-----3-|---5-----5-----5-|---3-----3-----3-|
G|-----5-----5-----|-----2-----2-----|-----4-----4-----|-----4-----4-----|
D|-----------------|-----------------|-----------------|-----------------|
A|-----------------|-----------------|-----------------|-----------------|
E|-----------------|-----------------|-----------------|-----------------|

Riff 5:
   e e e e e e e e   e e e e e e e e   e e e e e e e e   e e e e e e e e
e|-3-----3-----3---|-2-----2-----2---|-2-----2-----2---|-3-----3-----3---|
B|---5-----5-----5-|---3-----3-----3-|---3-----3-----3-|---5-----5-----5-|
G|-----5-----5-----|-----2-----2-----|-----4-----4-----|-----4-----4-----|
D|-----------------|-----------------|-----------------|-----------------|
A|-----------------|-----------------|-----------------|-----------------|
E|-----------------|-----------------|-----------------|-----------------|

Riff 6:
   e e e e e e e e   w
e|-3-----3-----3---|-2---------------|
B|---5-----5-----5-|-3---------------|
G|-----5-----5-----|-2---------------|
D|-----------------|-----------------|
A|-----------------|-----------------|
E|-----------------|-----------------|

Riff 7:
 |------------------Run A---------------|------Run B------|
   q   e   q   e   q    w                 w
e|-12-(12)-14-(14)-12-|-----------------|-12--------------|
B|--------------------|-13--------------|-13--------------|
G|--------------------|-----------------|-----------------|
D|--------------------|-----------------|-----------------|
A|--------------------|-----------------|-----------------|
E|--------------------|-----------------|-----------------|

Riff 8:
 |------Run A------|------Run B------|---------------Run C---------------|
     q   q   q   q   q   q   q   q     e e e e e e e e   e e e e e e e e
e|-0-0---0---0---0-|-0---0---0---0---|-0-0-0-0-0-0-0-0-|-0-0-0-0-0-0-0-0-|
B|-3/5---5---5---5-|-5---5---5---5---|-3-3-3-3-3-3-3-3-|-2-2-2-2-2-2-2-2-|
G|-----------------|-----------------|-----------------|-----------------|
D|-----------------|-----------------|-----------------|-----------------|
A|-----------------|-----------------|-----------------|-----------------|
E|-----------------|-----------------|-----------------|-----------------|

Riff 9:
 |----------Run A----------|----------Run B----------|
   e  e  e  e  e  e  e  e    e  e  e  e  e  e  e  e 
e|-------------------------|-------------------------|
B|-------------------------|-------------------------|
G|-14-14-14-13-13-13-13-13-|-10-10-10-9--9--9--9--9--|
D|-------------------------|-------------------------|
A|-12-12-12-11-11-11-11-11-|-8--8--8--7--7--7--7--7--|
E|-------------------------|-------------------------|

Riff 10:
   e  e  e  e  e  e  e  e    w
e|-------------------------|-----------------|
B|-------------------------|-----------------|
G|-10-10-10-10-10-10-10-10-|-9---------------|
D|-------------------------|-----------------|
A|-8--8--8--8--8--8--8--8--|-7---------------|
E|-------------------------|-----------------|

Riff 11:
 |---------------Run A---------------|---------------Run B---------------|
   e e e e e e e e   e e e e e e e e   e e e e e e e e   e e e e e e e e
e|-3-3-3-3-3-3-3-3-|-5-5-5-5-5-5-5-5-|-7-7-7-7-7-7-7-7-|-2-2-2-2-2-2-2-2-|
B|-5-5-5-5-5-5-5-5-|-7-7-7-7-7-7-7-7-|-8-8-8-8-8-8-8-8-|-3-3-3-3-3-3-3-3-|
G|-5-5-5-5-5-5-5-5-|-7-7-7-7-7-7-7-7-|-9-9-9-9-9-9-9-9-|-4-4-4-4-4-4-4-4-|
D|-5-5-5-5-5-5-5-5-|-7-7-7-7-7-7-7-7-|-9-9-9-9-9-9-9-9-|-4-4-4-4-4-4-4-4-|
A|-3-3-3-3-3-3-3-3-|-5-5-5-5-5-5-5-5-|-7-7-7-7-7-7-7-7-|-2-2-2-2-2-2-2-2-|
E|-----------------|-----------------|-----------------|-----------------|

Riff 12:
   e e e e e e i
e|-------------0---|
B|-------------0---|
G|-------------0---|
D|-2-2-x-3-x-x-2---|
A|-3-3-x-3-x-x-3---|
E|-----------------|

---

Riff Order:

Riff 1) Run A+B) x5
Riff 2) x1
Riff 1) Run A+B) x3
Riff 3) x1
Riff 4) x1
Riff 5) x1
Riff 6) x1
Riff 7) Run A) x2
Riff 1) Run A+B) x3
Riff 2) x1
Riff 8) Run A) x1
Riff 8) Run B) x5
Riff 8) Run C) x1
Riff 4) x1
Riff 5) x1
Riff 4) x1
Riff 6) x1
Riff 9) Run A+B) x5
Riff 9) Run A) x1
Riff 10) x1
Riff 7) Run A) x3
Riff 7) Run B) x1
Riff 11) Run A+B) x3
Riff 11) Run A) x1
Riff 1) Run A+B) x3
Riff 1) Run A) x1
Riff 12) x1

---

Symbols Used:
/ = Slide up
(?) = Tied Note

---

Notes Used:
q = Quarter Note
e = Eighth Note
w = Whole Note
i = Let Ring Infinitely (End)

            
            
Suggest correction
Creating personal tab
Creating personal tab
You can edit any tab online and save it as your Personal.

You can edit, replace or remove any tab part or add personal notes – all changes will be seen only by you.

Personal tabs can be accessed anytime from any device, even offline.
Learn more »
comments
print report bad tab
9 comments total. Showing first comments.
0 reply
ericae94 30 Aug 07, 2008 04:21 AM

I love it. There some parts that sound better with chords but it''s still okay xD

+1 reply
heartstroke=] 10 Sep 03, 2008 08:10 PM

omg! finaly some tabs i understand thx,awsome!!!

0 reply
flipboy101 10 Nov 29, 2008 09:20 AM

sorry its very off
the first main riffs are each a fret too high

guest
You may want to rate the tab now too:
select rating
Wanna post a correction for this tab? Suggest correction