Oops, an error
Loading. Please wait.

Reden bass

version 2
version 2

Whole song

Interactive

3,178 views 3 this week
1 commentread comment
1 2 3 4 5
1 last vote to show rating
add to favorites
×
Save as Personal and add changes to this tab that will be seen only by you. Learn more ›
×
You can save this tab as Personal to edit and correct it or add notes. All changes will be seen only by you. Learn more »
launch autoscroll
font size
0
reset
guitar tuner
edit
Autoscroll
slow
fast
+/-
esc
set tempo
stop
Difficulty
Reden Bass
Tokio Hotel

Intro :
G--------------------------------|
D--------------------------------|
A-0-0-0-0---------3-3-3----------| 2x
E---------0-0-0-0-------3--3-3-4-|

Verse :
G--------------------------------|
D--------------------------------|
A-0-0-0-0---------3-3-3----------| 6x
E---------0-0-0-0-------3--3-3-4-|

G--------------------------------|
D--------------------------------|
A-0-0-0-0---------3-3-3----------| 3x
E---------0-0-0-0-------3--3-3-4-|

G---------------------|
D---------------------|   1x
A---------------------|
E-1111-1111-1111-3333-|


Chorus :
G-------------------------------|
D-------------------------------|   5x
A-3-3-3-3--------0-0-0----------|
E--------0-0-0-0-------3--3-3-3-|

Verse
Chorus 

Bright
G------------------------------------|
D------------------------------------| 
A-55555555-00000000-55555555-00000000| 2x
E------------------------------------|

G--------------------------------|
D--------------------------------|
A-0-0-0-0---------3-3-3----------| 2x
E---------0-0-0-0-------3--3-3-4-|


Chorus :
G-------------------------------|
D-------------------------------|   13x
A-3-3-3-3--------0-0-0----------|
E--------0-0-0-0-------3--3-3-3-|


I hope it's okay..
If not: I'm sorry!
Greetings from Holland ^^

            
            
Suggest correction
Creating personal tab
Creating personal tab
You can edit any tab online and save it as your Personal.

You can edit, replace or remove any tab part or add personal notes – all changes will be seen only by you.

Personal tabs can be accessed anytime from any device, even offline.
Learn more »
Give kudos to tab author, rate the tab!
1 2 3 4 5
comments
print report bad tab
1 comment total.
0 reply
brokenheart77 15 Jul 19, 2008 01:06 PM

i play it an octave or two higher but it's fine for what i saw :)
i didn't play it yet though

guest
Wanna post a correction for this tab? Suggest correction