Oops, an error
Loading. Please wait.

Schrei tab

version 3
version 3

Whole song

Interactive

6,744 views 12 this week
no commentswrite comment
1 2 3 4 5
x 5
add to favorites
×
Save as Personal and add changes to this tab that will be seen only by you. Learn more ›
×
You can save this tab as Personal to edit and correct it or add notes. All changes will be seen only by you. Learn more »
launch autoscroll
font size
0
reset
how to read this tab
guitar tuner
edit
Autoscroll
slow
fast
+/-
esc
set tempo
stop
Author
Difficulty
Stay always on distortion effect if you want but it's interesting to use some effects 
"chorus effect" for example...

*Intro...
|------------------|
|------------------|
|--4--4------------|
|--4--4--2-3-0-2-2-|  X4
|--2--2------------|
|------------------|

*After...
|------------------|
|------------------|
|------------------|
|--4---------------|
|--2------5--------|
|---------3--------|

*Verse 1...
|-------------------------------------------|
|--10--------------10-------7----------7----|
|-----11-----11-------11------7----7-----7--|  X4 (play this with Chorus
|---------12----12---------------9---9------|      effect it's nice =D and
|-------------------------------------------|      Tom plays verses like that
|-------------------------------------------|      in live...i think^^)

*! The ending of the verse is that !
 -------------------------------------------|
 --10--------------10-------7---------------|
 -----11-----11-------11-------7------------|
 ---------12----12----------------9---------|
 ------------------------------------\5-----|
 -------------------------------------------|

*Pre-Chorus
|---------------------------------------------|
|---------------------------------------------|
|-----------------------------------44--------|  | . palm mute note
|--2-2-2-2-2-2-2-2-5-5-5-5-5-5-5-5--44--------|  | x mute note
|--2-2-2-2-2-2-2-2-5-5-5-5-5-5-5-5--22--------|
|--0-0-0-0-0-0-0-0-3-3-3-3-3-3-3-3--22--------|
   . . . . . . . .                  xx

*Chorus
|----------------------------------------------------|
|----------------------------------------------------|
|--4--4-----------x-4--4-------------4--4------------|
|--4--4-----------x-4--4-------------4--4------------|
|--2--2--2-3-0-2-2x-2--2--2-3-0-2-2--2--2--2-3-0-2-2-|
|-----------------x----------------------------------|
                                                      } X2
 ---------------------------------------------------|
 ---------------------------------------------------|
 ----------7-7-9------------------------------------|
 --5--5-55-7-7-9------------------------------------|
 --5--5-55-5-5-7------------------------------------|
 --3--3-33-5-5-7------------------------------------|

*Just after Chorus
|------------------------|
|------------------------|
|--4---------------------|
|--4------5--------------|
|--2------5--------------|
|---------3--------------|

*Verse 2 (It's the same than the Verse 1)

*Pre-Chorus

*Chorus

*Bridge
|------------------------------------------------------------------|
|------------------------------------------------------------------|
|------------------------------------------------------------------|
|--9-9-9-9-9-9-9-9-5-5-5-5-5-5-5-5-7-7-7-7-7-7-7-7-2-2-2-2-2-2-2-2-|
|--9-9-9-9-9-9-9-9-5-5-5-5-5-5-5-5-7-7-7-7-7-7-7-7-2-2-2-2-2-2-2-2-|
|--7-7-7-7-7-7-7-7-3-3-3-3-3-3-3-3-5-5-5-5-5-5-5-5-0-0-0-0-0-0-0-0-|

 ------------------------------|
 ------------------------------|
 ------------------------------|
 -4-4-4-4-4-4-4-4--------------|
 -4-4-4-4-4-4-4-4--------------|
 -2-2-2-2-2-2-2-2--------------|

                   * OR ("and" if there're 2 guitars) *

|--2-----2-3-0-2--@@      |--/14----14-15----14------------|
|-----------------         |---------------17----------------------------|
|-----4-----------         |-------16------------------------------------|
|-----------------  X3     |---------------------------------------------|  X2
|-----------------         |---------------------------------------------|
|-----------------         |---------------------------------------------|


*Then...                                 *And...
|-------------                           |---------------------|
|-------------                           |----------3----------|
|-------------                           |----------2------44--|
|-------------  X7 (play it more and     |----------0------44--|
|--2-3-0-2-2--      more strongly)       |--2-3-0-2-0------22--|
|-------------                           |-----------------22--|
                                                           xx
                                                                            *Chorus (last chorus)

*Ending (play it strongly)
|--------------------------------------------------------------------|
|--------------------------------------------------------------------|
|--------------------------------------------------------------------|
|--------------------------------------------------------------------|
|--2-3-0-2-2--2-3-0-2-2--2-3-0-2-2--2-3-0-2-2--2-3-0-2-2--2-3-0-2-2--|
|--------------------------------------------------------------------|

 ----------------|
 ----------------|
 ---------7-7-9--|
 -5--5-55-7-7-9--|  X2
 -5--5-55-5-5-7--|
 -3--3-33-5-5-7--|

*At the end of the ending
|----------------------|
|----------------------|
|--4-------------------|
|--4-------------------|
|--2-------------------|
|----------------------|

It's my first tab and I hope you'll like it... =) Sorry if the tab is not so good!!! And 
lOve this song xD

            
            
Suggest correction
Creating personal tab
Creating personal tab
You can edit any tab online and save it as your Personal.

You can edit, replace or remove any tab part or add personal notes – all changes will be seen only by you.

Personal tabs can be accessed anytime from any device, even offline.
Learn more »
comments
print report bad tab
guest
You may want to rate the tab now too:
select rating
Wanna post a correction for this tab? Suggest correction