Oops, an error
Loading. Please wait.

Vergessene Kinder tab

version 2
version 2

Whole song

Interactive

3,279 views 3 this week
2 commentsread comments
1 2 3 4 5
x 5
add to favorites
×
Save as Personal and add changes to this tab that will be seen only by you. Learn more ›
×
You can save this tab as Personal to edit and correct it or add notes. All changes will be seen only by you. Learn more »
launch autoscroll
font size
0
reset
how to read this tab
guitar tuner
edit
Autoscroll
slow
fast
+/-
esc
set tempo
stop
Author
Tokio Hotel - Vergessene Kinder (Forgotten children)

e-mail: avrill_xx@hotmail.com

I'm 100% sure this is how it's really played - except for the 3rd guitar

VERSE
guitar 1                           
eb|--------------|--------------|  
Bb|--------------|--------------|  
Gb|-----8-----8--|-----8-----8--|  
Db|--6-----6-----|--6-----6-----|  
Ab|--------------|--------------|
Eb|--------------|--------------|
                                     x4
eb|--------------|--------------|
Bb|--------------|--------------|
Gb|-----8-----8--|-----8-----8--|
Db|--------------|--------------|
Ab|--7-----7-----|--7-----6-----|
Eb|--------------|--------------|

then: 
eb|--------------|--------------|  
Bb|--------------|--------------|  
Gb|-----8-----8--|-----8-----8--|  
Db|--6-----6-----|--6-----6-----|  
Ab|--------------|--------------|
Eb|--------------|--------------|
                                    
eb|--------------|--------------|
Bb|--------------|--------------|
Gb|-----8-----8--|-----------11-|
Db|--------------|-----11-------|
Ab|--7-----7-----|--9------9----|
Eb|--------------|--------------|

                                               
REFREIN                                       
guitar 1                                      
einsam und verloren...                        
eb|-------------|------------|-------------|----------|
Bb|-------------|------------|-------------|--------0-|
Gb|-------------|------1-----|-------1-----|------4---|
Db|------6------|---------2--|----2-----2--|----4-----|  
Ab|--4------7---|--0---------|-------------|--2-------|      
Eb|-------------|------------|-------------|----------|

Beim ersten Schrei erforen
eb|-------------|------------|-------------|----------|
Bb|-------------|------------|-------------|--------0-|
Gb|-------------|------1-----|--2----1-----|------4---|
Db|------6------|---------2--|----2----2---|----4-----|
Ab|--4------7---|--0---------|-------------|--2-------|
Eb|-------------|------------|-------------|----------|

Name unbekannt...
eb|-------------|------------|-------------|----------|
Bb|-------------|------------|-------------|--------0-|
Gb|-------------|------1-----|-------1-----|------4---|
Db|------6------|---------2--|----2-----2--|----4-----|
Ab|--4------7---|--0---------|-------------|--2-------|
Eb|-------------|------------|-------------|----------|

aus der Welt verbannt...
eb|-------------|------------|-------------|----------|
Bb|-------------|------------|-------------|--------0-|
Gb|-------------|------1-----|--2----1-----|------4---|
Db|------6------|---------2--|----2----2---|----4-----|
Ab|--4------7---|--0---------|-------------|--2-------|
Eb|-------------|------------|-------------|----------|


sie sehen...
eb|-------------|------------|-------------|----------|
Bb|-------------|------------|-------------|--------0-|
Gb|-------------|------1-----|-------1-----|------4---|
Db|------6------|---------2--|----2-----2--|----4-----|
Ab|--4------7---|--0---------|-------------|--2-------|
Eb|-------------|------------|-------------|----------|

sie lachen...
eb|-------------|------------|-------------|----------|
Bb|-------------|------------|-------------|--------0-|
Gb|-------------|------1-----|--2----1-----|------4---|
Db|------6------|---------2--|----2----2---|----4-----|
Ab|--4------7---|--0---------|-------------|--2-------|
Eb|-------------|------------|-------------|----------|


VERSE
guitar 1                           
eb|--------------|--------------|  
Bb|--------------|--------------|  
Gb|-----8-----8--|-----8-----8--|  
Db|--6-----6-----|--6-----6-----|  
Ab|--------------|--------------|
Eb|--------------|--------------|
                                     x4
eb|--------------|--------------|
Bb|--------------|--------------|
Gb|-----8-----8--|-----8-----8--|
Db|--------------|--------------|
Ab|--7-----7-----|--7-----6-----|
Eb|--------------|--------------|

then: 
eb|--------------|--------------|  
Bb|--------------|--------------|  
Gb|-----8-----8--|-----8-----8--|  
Db|--6-----6-----|--6-----6-----|  
Ab|--------------|--------------|
Eb|--------------|--------------|
                                    
eb|--------------|--------------|
Bb|--------------|--------------|
Gb|-----8-----8--|-----------11-|
Db|--------------|-----11-------|
Ab|--7-----7-----|--9------9----|
Eb|--------------|--------------|


REFREIN 

einsam und verloren
guitar 1
eb|-------------|------------|-------------|----------|
Bb|-------------|------------|-------------|--------0-|
Gb|-------------|------1-----|-------1-----|------4---|
Db|------6------|---------2--|----2-----2--|----4-----|
Ab|--4------7---|--0---------|-------------|--2-------|
Eb|-------------|------------|-------------|----------|

guitar 2
eb|-----4-------|-----5------|------7------|----7-----|
Bb|-----5-------|-----5------|------9------|----7-----|
Gb|-----6-------|-----6------|------9------|----8-----|
Db|-----6-------|-----7------|------9------|----9-----|
Ab|-----4-------|-----7------|------7------|----9-----|
Eb|-------------|-----5------|-------------|----7-----|

beim ersten Schrei erforen
guitar 1
eb|-------------|------------|-------------|----------|
Bb|-------------|------------|-------------|--------0-|
Gb|-------------|------1-----|--2----1-----|------4---|
Db|------6------|---------2--|----2----2---|----4-----|
Ab|--4------7---|--0---------|-------------|--2-------|
Eb|-------------|------------|-------------|----------|

guitar 2
eb|-----4-------|-----5------|------7------|----7-----|
Bb|-----5-------|-----5------|------9------|----7-----|
Gb|-----6-------|-----6------|------9------|----8-----|
Db|-----6-------|-----7------|------9------|----9-----|
Ab|-----4-------|-----7------|------7------|----9-----|
Eb|-------------|-----5------|-------------|----7-----|

Name unbekannt
guitar 1
eb|-------------|------------|-------------|----------|
Bb|-------------|------------|-------------|--------0-|
Gb|-------------|------1-----|-------1-----|------4---|
Db|------6------|---------2--|----2-----2--|----4-----|
Ab|--4------7---|--0---------|-------------|--2-------|
Eb|-------------|------------|-------------|----------|

guitar 2
eb|-----4-------|-----5------|------7------|----7-----|
Bb|-----5-------|-----5------|------9------|----7-----|
Gb|-----6-------|-----6------|------9------|----8-----|
Db|-----6-------|-----7------|------9------|----9-----|
Ab|-----4-------|-----7------|------7------|----9-----|
Eb|-------------|-----5------|-------------|----7-----|

aus der Welt verbannt
guitar 1
eb|-------------|------------|-------------|----------|
Bb|-------------|------------|-------------|--------0-|
Gb|-------------|------1-----|--2----1-----|------4---|
Db|------6------|---------2--|----2----2---|----4-----|
Ab|--4------7---|--0---------|-------------|--2-------|
Eb|-------------|------------|-------------|----------|

guitar 2
eb|-----4-------|-----5------|------7------|----7-----|
Bb|-----5-------|-----5------|------9------|----7-----|
Gb|-----6-------|-----6------|------9------|----8-----|
Db|-----6-------|-----7------|------9------|----9-----|
Ab|-----4-------|-----7------|------7------|----9-----|
Eb|-------------|-----5------|-------------|----7-----|


sie sehen...
guitar 1 
eb|-------------|------------|-------------|----------|
Bb|-------------|------------|-------------|--------0-|
Gb|-------------|------1-----|-------1-----|------4---|
Db|------6------|---------2--|----2-----2--|----4-----|
Ab|--4------7---|--0---------|-------------|--2-------|
Eb|-------------|------------|-------------|----------|

guitar 2
eb|-------------|------------|-------------|----------|
Bb|-------------|------------|-------------|----------|
Gb|--66666666---|------------|---99999999--|----------|
Db|--66666666---|--77777777--|---99999999--|-99999999-|
Ab|--44444444---|--77777777--|---77777777--|-99999999-|
Eb|-------------|--55555555--|-------------|-77777777-|

sie lachen..
guitar 1
eb|-------------|------------|-------------|----------|
Bb|-------------|------------|-------------|--------0-|
Gb|-------------|------1-----|--2----1-----|------4---|
Db|------6------|---------2--|----2----2---|----4-----|
Ab|--4------7---|--0---------|-------------|--2-------|
Eb|-------------|------------|-------------|----------|

guitar 2
eb|-------------|------------|-------------|
Bb|-------------|------------|-------------|
Gb|--66666666---|------------|---99999999--|
Db|--66666666---|--77777777--|---99999999--|
Ab|--44444444---|--77777777--|---77777777--|
Eb|-------------|--55555555--|-------------|


BRIDGE
genau wie wir
guitar 2
eb|--------xx--|
Bb|--------xx--|
Gb|--------xx--|
Db|--666666xx--|  x2
Ab|--666666xx--|
Eb|--444444xx--|


(no guitar)
alles sollte anders sein 

alles solte anders sein
guitar 1
eb|---------------|
Bb|---------------|
Gb|--4------4--6--|
Db|--2---4--2--4--|
Ab|------2--------|
Eb|---------------|



REFREIN 3
wir sehen, wir fuhlen...
guitar 1 + 2
eb|-------------|------------|-------------|----------|
Bb|-------------|------------|-------------|----------|
Gb|--66666666---|------------|---99999999--|----------|
Db|--66666666---|--77777777--|---99999999--|-99999999-|
Ab|--44444444---|--77777777--|---77777777--|-99999999-|
Eb|-------------|--55555555--|-------------|-77777777-|

guitar 3 (I'm not sure of this)
wir sehen, wir fuhlen
eb|--------------------|------------------------|
Bb|--9-9-9/16-16-16-16-|--12-12-12/17-17-17-17--|
Gb|--------------------|------------------------|
Db|--------------------|------------------------|
Ab|--------------------|------------------------|
Eb|--------------------|------------------------|

verstehen, genau wie ihr
eb|--------------------|------------------------|
Bb|--------------------|--12-12-12-12-12-12-12--|
Gb|--9-9-9/13-13-13-13-|--11-11-11-11-11-11-11--|
Db|--------------------|------------------------|
Ab|--------------------|------------------------|
Eb|--------------------|------------------------|


wir lachen, und weinen
guitar 1 + 2
eb|-------------|------------|-------------|----------|
Bb|-------------|------------|-------------|----------|
Gb|--66666666---|------------|---99999999--|----------|
Db|--66666666---|--77777777--|---99999999--|-99999999-|
Ab|--44444444---|--77777777--|---77777777--|-99999999-|
Eb|-------------|--55555555--|-------------|-77777777-|

guitar 3 
wir lachen...
eb|--------------------|------------------------|
Bb|--9-9-9/16-16-16-16-|--12-12-12/17-17-17-17--|
Gb|--------------------|------------------------|
Db|--------------------|------------------------|
Ab|--------------------|------------------------|
Eb|--------------------|------------------------|

wollen leben
eb|--------------------|------------------------|
Bb|--------------------|--12-12-12-12-12-12-12--|
Gb|--9-9-9/13-13-13-13-|--11-11-11-11-11-11-11--|
Db|--------------------|------------------------|
Ab|--------------------|------------------------|
Eb|--------------------|------------------------|


wir sehen, wir fuhlen...
guitar 1 + 2
eb|-------------|------------|-------------|----------|
Bb|-------------|------------|-------------|----------|
Gb|--66666666---|------------|---99999999--|----------|
Db|--66666666---|--77777777--|---99999999--|-99999999-|
Ab|--44444444---|--77777777--|---77777777--|-99999999-|
Eb|-------------|--55555555--|-------------|-77777777-|

guitar 3 
wir sehen, wir fuhlen
eb|--------------------|------------------------|
Bb|--9-9-9/16-16-16-16-|--12-12-12/17-17-17-17--|
Gb|--------------------|------------------------|
Db|--------------------|------------------------|
Ab|--------------------|------------------------|
Eb|--------------------|------------------------|

verstehen, genau wie ihr
eb|--------------------|------------------------|
Bb|--------------------|--12-12-12-12-12-12-12--|
Gb|--9-9-9/13-13-13-13-|--11-11-11-11-11-11-11--|
Db|--------------------|------------------------|
Ab|--------------------|------------------------|
Eb|--------------------|------------------------|


wir lachen, und weinen
guitar 1 + 2
eb|-------------|------------|-------------|----------|
Bb|-------------|------------|-------------|----------|
Gb|--66666666---|------------|---99999999--|----------|
Db|--66666666---|--77777777--|---99999999--|-99999999-|
Ab|--44444444---|--77777777--|---77777777--|-99999999-|
Eb|-------------|--55555555--|-------------|-77777777-|

guitar 3 
wir lachen...
eb|--------------------|------------------------|
Bb|--9-9-9/16-16-16-16-|--12-12-12/17-17-17-17--|
Gb|--------------------|------------------------|
Db|--------------------|------------------------|
Ab|--------------------|------------------------|
Eb|--------------------|------------------------|

wollen leben
eb|--------------------|------------------------|
Bb|--------------------|--12-12-12-12-12-12-12--|
Gb|--9-9-9/13-13-13-13-|--11-11-11-11-11-11-11--|
Db|--------------------|------------------------|
Ab|--------------------|------------------------|
Eb|--------------------|------------------------|

genau wie ihr
guitar 1
eb|------------------------------------------|
Bb|------------------------------------------|
Gb|------------------9-9-9-8-8-8-4-4---------|
Db|--666666--666666--x-x-x-x-x-x-x-x--666666-|  
Ab|--666666--666666--7-7-7-6-6-6-2-2--666666-|
Eb|--444444--444444-------------------444444-|


guitar 2
eb|------------------------------------------|
Bb|------------------------------------------|
Gb|------------------9-9-9-8-8-8-4-4---------|
Db|--666666--666666--9-9-9-8-8-8-4-4--666666-|  
Ab|--666666--666666--7-7-7-6-6-6-2-2--666666-|
Eb|--444444--444444-------------------444444-|


            
            
Suggest correction
Creating personal tab
Creating personal tab
You can edit any tab online and save it as your Personal.

You can edit, replace or remove any tab part or add personal notes – all changes will be seen only by you.

Personal tabs can be accessed anytime from any device, even offline.
Learn more »
comments
print report bad tab
2 comments total.
0 reply
Mytokioromance 184 Mar 09, 2009 06:42 PM

This sounds good :)
but is it really standard tuning?

0 reply
Avrill 1,052 Mar 10, 2009 07:11 AM

imo it's in Eb tuning because of this :
eb|----------|
Bb|--------0-|
Gb|------4---|
Db|----4-----|
Ab|--2-------|
Eb|----------|

when you watch Tom play it, you see that he doesn't hit the same string twice

guest
You may want to rate the tab now too:
select rating
Wanna post a correction for this tab? Suggest correction