Oops, an error
Loading. Please wait.

I Shall Walk chords

by Tom Dae
52 views 1 this week
1 commentread comment
1 2 3 4 5
x 8
add to favorites
×
Save as Personal and add changes to this tab that will be seen only by you. Learn more ›
×
You can save this tab as Personal to edit and correct it or add notes. All changes will be seen only by you. Learn more »
launch autoscroll
font size
0
reset
transpose
0
reset
simplify chords
display chords
guitar tuner
edit
Autoscroll
slow
fast
+/-
esc
set tempo
stop
Strumming
There is no strumming pattern for this song yet. and get +5 IQ
SONG:   I SHALL WALK
ARTIST: TOM DAE TURNED ON
TAB BY: DON CZARSKI
EMAIL:  GUITARZAN7@HOTMAIL.COM
     

                        I SHALL WALK
                      TOM DAE TURNED ON

INTRO:
G5  A5  F5 E5
//  //  /  /

G5  A5  F5 E5
//  //  /  /


VERSE:
 E5                   G5                A5         E5
Thumbing through the morning news on a dark dreary day,
                     E5                              
Wondering what it's coming to 
   G5                    A5          E5
So sad to think there's little I can do.
 E5        G5            A5                E5
While the trees and the rocks are dragged away. 

Yeah!

G5  A5  F5 
//  //  /  


VERSE:
     E5                   G5             A5
The air's so fowl that I have to travel miles,
                                        E5
Just to get a clean fresh breeze on my face.
    E5
And if I remain in this dying climate,
     G5                   A5             E5
The air or the wars will soon decide my fate. 

G5  A5  F5 E5
//  //  /  /
G5  A5  F5 E5
//  //  /  /


CHORUS: 
        D5
So, I'm moving on 

To where time doesn't 
 C5           G5
Tick away my life,

           D5
Where the sunlight warms my face, 
         C5             G5
And the stars shine at night.

       D5
Where love holds the Key, 
     C5              G5
And trust forms the Lock,

          D5
Where my mind can freely choose, 
     C5           G5
The path I shall walk,

         F5
I Shall Walk, 
         E5
I Shall Walk.

G5  A5  F5 E5
//  //  /  /
G5  A5  F5 E5
//  //  /  /


VERSE:
    E5             G5           A5            E5
My destination's where I'll be happy just to live,
      G5          A5             E5
This life to the fullest of my dreams.
       E5             G5             A5            E5
And if I return it'll only be for a visit or maybe two,
        G5             A5              E5
For my heart needs to travel with my dreams. 

G5  A5  F5 E5
//  //  /  /


CHORUS: 
        D5
So, I'm moving on 

To where time doesn't 
 C5           G5
Tick away my life,

           D5
Where the sunlight warms my face, 
         C5             G5
And the stars shine at night.

       D5
Where love holds the Key, 
     C5              G5
And trust forms the Lock,

          D5
Where my mind can freely choose, 
     C5           G5
The path I shall walk,

         F5
I Shall Walk, 
         E5
I Shall Walk.


INSTRUMENTAL - (If you ONLY want to play chords):

(1st part is just groovin' on the E5 chord for a while)
E5

Then:
E5  G5  A5  B5

G5  A5  F5 E5
//  //  /  /
G5  A5  F5 E5
//  //  /  /

            (OR PLAY THE SOLO):

     
          ******** SOLO ********

e|------------|---------------------------|
B|------------|---------------------------|
G|------------|-----------------1h3-1-----|
D|------------|-------3-1-3-1-3-------3-1-|
A|------------|---------------------------|
E|-1-1--1-1-1-|-1-1-1---------------------|

e|-----------------------|
B|-----------------------|
G|---------------3-1-----|
D|-----3-1-3-1-3-----3-1-|
A|-----------------------|
E|-1-1-------------------|

e|---------------------|---------------------|
B|---------------------|---------------------|
G|---------------------|---------------------|
D|-----3-1-3-3-1-3-1---|-----3-1-3-3-1-3-1---|
A|-------------------3-|-------------------3-|
E|-1-1-----------------|-1-1-----------------|

e|------------------|
B|-6-9-8------------|
G|-------8-7-8------|
D|-------------8-10-|
A|------------------|
E|------------------|

e|------------------------------|
B|------------------------------|
G|------------------------------|
D|-8-10--8-10--8-10--8-10--8-10-|
A|------------------------------|
E|------------------------------|
                 
e|-------------------------------|
B|-------------------------------|
G|------------------8----8-----8-|
D|-10-10--10-10--10---10----10---|
A|-------------------------------|
E|-------------------------------|


G5  A5  F5 E5
//  //  /  /
G5  A5  F5 E5
//  //  /  /


VERSE:
     E5                G5          A5             E5
Well if you'd like to come I will gladly show the way,
        G5            A5              E5
It's a life that only few have but explored.
         E5            G5            A5             E5
All you need to do is care, for the road is always there,
        E5          G5            A5            E5
Just a little bit unnoticed, But mostly just ignored.

G5  A5  F5 E5
//  //  /  /


CHORUS: 
        D5
So, I'm moving on 

To where time doesn't 
 C5           G5
Tick away my life,

           D5
Where the sunlight warms my face, 
         C5             G5
And the stars shine at night.

       D5
Where love holds the Key, 
     C5              G5
And trust forms the Lock,

          D5
Where my mind can freely choose, 
     C5           G5
The path I shall walk,

         F5
I Shall Walk, 
         E5
I Shall Walk.


OUTRO/INSTRUMENTAL - (If you ONLY want to play chords):

(1st part is just groovin' on the E5 chord for a while)
E5

Then:
E5  G5  A5  B5

(Begin to FADE OUT)
G5  A5  F5 E5
//  //  /  /
G5  A5  F5 E5
//  //  /  /


            (OR PLAY THE SOLO):

     
          ******** SOLO ********

e|------------|---------------------------|
B|------------|---------------------------|
G|------------|-----------------1h3-1-----|
D|------------|-------3-1-3-1-3-------3-1-|
A|------------|---------------------------|
E|-1-1--1-1-1-|-1-1-1---------------------|

e|-----------------------|
B|-----------------------|
G|---------------3-1-----|
D|-----3-1-3-1-3-----3-1-|
A|-----------------------|
E|-1-1-------------------|

e|---------------------|---------------------|
B|---------------------|---------------------|
G|---------------------|---------------------|
D|-----3-1-3-3-1-3-1---|-----3-1-3-3-1-3-1---|
A|-------------------3-|-------------------3-|
E|-1-1-----------------|-1-1-----------------|

e|------------------|
B|-6-9-8------------|
G|-------8-7-8------|
D|-------------8-10-|
A|------------------|
E|------------------|

e|------------------------------|
B|------------------------------|
G|------------------------------|
D|-8-10--8-10--8-10--8-10--8-10-|
A|------------------------------|
E|------------------------------|
                 
e|-------------------------------|
B|-------------------------------|
G|------------------8----8-----8-|
D|-10-10--10-10--10---10----10---|
A|-------------------------------|
E|-------------------------------|


G5  A5  F5 E5
//  //  /  /
G5  A5  F5 E5
//  //  /  /    -  FADE OUT


            
            
Suggest correction
Creating personal tab
Creating personal tab
You can edit any tab online and save it as your Personal.

You can edit, replace or remove any tab part or add personal notes – all changes will be seen only by you.

Personal tabs can be accessed anytime from any device, even offline.
Learn more »
comments
print report bad tab
1 comment total.
0 reply
Tymexpyres 20 May 26, 2017 08:49 PM

Niiiice...sounds good.Been looking for this a long time.Thnk u friend.

guest
You may want to rate the tab now too:
select rating
Wanna post a correction for this tab? Suggest correction